Song name
# A B C D E F G H I J K L M N O P Q R S T U V W X Y Z

Twisted Thoughts - Shes Wonderful tab

Help us improve GuitareTab! Take a short survey!
Twisted Thoughts /shes wonderful.
 Tabbed by Dwayne (head singer and guitarist)    gohst_sniper@yahoo.com.
  
---7-----7-----7------------------
-----7-----7-----7----------------
-------0-----0-----0--------------
----------------------------------
----------------------------------
----------------------------------

----------------------------------
----------------------------------
----------------------------------
----7-----7-----7-----------------
------7-----7-----7---------------
--------0-----0-----0------------- 
:: Ultimate Guitar Archive :: 
http://www.ultimate-guitar.com 

 
Related for Shes Wonderful tab