Song name
# A B C D E F G H I J K L M N O P Q R S T U V W X Y Z

Twisted Wheel - Lucy The Castle tab

Intro:
|------------------------------------|
|-------------------------------14---|
|-------------------------------14---|
|-------------------------------12---|
|-7-7-9-7-9-7-9-7--7-9-7-9-7-9-------|
|-5-5-5-5-5-5-5-5--5-5-5-5-5-5-------|

|--------------------------------|
|--------------------------------|
|--------------------------------|
|--------------------------------|  x2
|-7-7-9-7-9-7-9-7--7-9-7-9-7-9---|
|-5-5-5-5-5-5-5-5--5-5-5-5-5-5---|

|---------------------------------------|
|---------------------------------------|
|---------------------------------------| x2
|---------------------------------------|
|-9-9-11-9-11-9-11-9--9-11-9-11-9-11-9--|
|-7-7-7--7-7--7--7-7--7--7-7-7--7-7--7--|

Verse:

[ ***** PALM MUTING ***** ]
|---------------------------|
|---------------------------|
|---------------------------|
|------7-7-7-7--------------|
|------7-7-7-7--------------|
|------5-5-5-5--------------| etc.

[repeate the intro on the second part of the verse]

Chorus:

|-----|
|-----|
|-7---| x3
|-7--7|
|-5--7|
|----5|

|-----|
|-----|
|-----|
|--9--|
|--9--|
|--7--|

[on guitar solo, like the verse]

Sorry for mistakes and the not very complete tab, but is my first one :(
Hope you enjoy it!
Tap to rate this tab
 
# A B C D E F G H I J K L M N O P Q R S T U V W X Y Z