Song name
# A B C D E F G H I J K L M N O P Q R S T U V W X Y Z

Twisted Wheel - Uk Bues tab

----------------------------------------------------------------------------
                             UK BLUES - Twisted Wheel
-----------------------------------------------------------------------------

Tuning:standard

Lyrics may be off in some places

Non standard chords

   (e)   (a)
e|------------------------------------------|
B|------------------------------------------|
G|--9----14---------------------------------|
D|--9----14---------------------------------|
A|--7----12---------------------------------|
E|------------------------------------------|


Intro Times 2

e|-------------------------------------------------------------------------|
B|-------------------------------------------------------------------------|
G|---4--4--4-2-1--4--4--4-2-1---4--4--4-2-1--1-2-4--1-2-4------------------|
D|-------------------------------------------------------------------------|
A|-------------------------------------------------------------------------|
E|-0------------0-------------0--------------------------------------------|

Jonny sometimes puts an Asus in for anyone who cares.

E,A,E


E                                 E, EE
The empire begs down on its knees,
A                         E   E, EE
Drowning in debt, tax and fees.
e
Where’s all the times with money spent in a clung
A                                       e   D#,e
Love to make the most out of what we’ve got.

C              B A        B,A
Feel the culture burn away
C                    D A
And nothing gonna be like it used to be.

UK blues.

e|-------------------------------------------------------------------------|
B|-------------------------------------------------------------------------|
G|---4--4--4-2-1--4--4--4-2-1---4--4--4-2-1--1-2-4--1-2-4------------------|
D|-------------------------------------------------------------------------|
A|-------------------------------------------------------------------------|
E|-0------------0-------------0--------------------------------------------|

E                                   E, EE
Lietts off the water drags and comes,
A                                     E, EE
Spending all their money dropping bombs.
e
Two hundred cities burn, posh kids learn how to slide.
A                                          D#,e D#,e
The poorpers bite, the dust before they die.

C              B A        B,A
Feel the culture burn away
C                    D A
And nothing gonna be like it used to be. UK blues

E,A E,A
  UK blues UK Blues

e|-------------------------------------------------------------------------|
B|-------------------------------------------------------------------------|
G|---4--4--4-2-1--4--4--4-2-1---4--4--4-2-1--1-2-4--1-2-4------------------|
D|-------------------------------------------------------------------------|
A|-------------------------------------------------------------------------|
E|-0------------0-------------0--------------------------------------------|

e|----------------------------------------------------------|
B|-6-7-9-7-6766--19-19-19-19-19-19-19----16--16--16-14-13---|
G|------------------------------------14--------------------|
D|----------------------------------------------------------|
A|----------------------------------------------------------|
E|----------------------------------------------------------|


e|-----------------------------------------------------------------|
B|----16--16--16-14-13----16--16--16-14-13-16-16-16-16-16-16-------|
G|-14------------------14------------------(bend)------------------|
D|-----------------------------------------------------------------|
A|-----------------------------------------------------------------|
E|-----------------------------------------------------------------|


   E    A    E    A    E    A    E      A                   E
UK blues, UK blues, UK blues, UK blues, blues blu blu blu blu

E,EE AAAAAAAA     A, AA
(muted)Emigrate down under!
e
There’s no hope when the culture’s round my copes,
A                       e
is it any wonder why we drink.


              B A        B,A
Feel the culture burn away
C                    D A
And nothing gonna be like it used to be.
 E      A  E      A  E      A  E      A
 UK blues, UK blues, UK blues, UK blues.


e                   a
Taxes don’t come so easily,
e                   a
lalalalalaaalalalaalalalaal(not a clue what is sung)
e                   a
Got no time for your family,
e                        a                   e
The breath smells great, still hard to breathe.
       E
Uk blues
Tap to rate this tab
# A B C D E F G H I J K L M N O P Q R S T U V W X Y Z