Song name
# A B C D E F G H I J K L M N O P Q R S T U V W X Y Z

Twiztid - Woe Woe tab

Twiztid
Woe Woe Woe
W.I.C.K.E.D.


E--------------------------------------------------|
B--------------------------------------------------|
G--------------------------------------------------|
D----8------8------6-----6-------------------------|    clean
A---8-8----8-8----4-4---4-4------4-4-4-4--3-3-3--5-|
E--6---6--6---6--6---6-6---6----2-2-2-2--1-1-1--3--|

E------------------------------------------------------------------|
B------------------------------------------------------------------|
G------------------------------------------------------------------|
D--888-888-888-888-666-666-666-666-444-444-444-444-333-333-333-333-|
A--888-888-888-888-444-444-444-444-444-444-444-444-333-333-333-333-|
E--666-666-666-666-666-666-666-666-222-222-222-222-111-111-111-111-|
heavy dist and fuzz for this part

E--------------------------------------------------|
B--------------------------------------------------|
G--------------------------------------------------|
D----8------8------6-----6-------------------------|    clean
A---8-8----8-8----4-4---4-4------4-4-4-4--3-3-3--5-|
E--6---6--6---6--6---6-6---6----2-2-2-2--1-1-1--3--|
Tap to rate this tab
# A B C D E F G H I J K L M N O P Q R S T U V W X Y Z