Song name
# A B C D E F G H I J K L M N O P Q R S T U V W X Y Z

Twiztid - Woe Woe tab

-------------------------------------------------------------------------|
-------------------------------------------------------------------------|
-------------------------------------------------------------------------|
----4-----4-----4-----4-----0-----0-----0----7-4-----0-----0-----0-----0-|
-2-----2-----2-----2-----2-----2-----2------------2-----2-----2-----2----|
-------------------------------------------------------------------------|

-----------------------|
-----------------------|
-----------------------|
-----------------------|  Clean 2x
----5-----5-----5-----5|
-3-----3-----3-----3---|

--------------------------------------------------|
--------------------------------------------------|
--------------------------------------------------|
--------------------------------------------------|  Dist.2x
-5--5--5--5--4--4--4--4--3--3--3--3--3--2--2--2--2|
-3--3--3--3--2--2--2--2--1--1--1--1--1--0--0--0--0|

Clean part-Chorus

Dist.part 1x

Chorus

-------------------------------------------------------------------------|
-------------------------------------------------------------------------|
-------------------------------------------------------------------------|
-------------------------------------------------------------------------|
-----5-----5-----5-----5-----4-----4-----4-----4-----3-----3-----3-----3-|
-3-3-3-3-3-3-3-3-3-3-3-3-2-2-2-2-2-2-2-2-2-2-2-2-1-1-1-1-1-1-1-1-1-1-1-1-|
 . .   . .   . .   . .   . .   . .   . .   . .   . .   . .   . .   . .
------------------------|
------------------------|
------------------------|
------------------------| 2x
-----2-----2-----2-----2|
-0-0-0-0-0-0-0-0-0-0-0-0|
 . .   . .   . .   . .
-----------------------------------------------------------------|
-17b-16~--------16-17b-16~--------16-16-p12~~16-p12-11-p9-p11-10~|
--------15-16-15----------15-16-15-------------------------------|
-----------------------------------------------------------------|
-----------------------------------------------------------------|
-----------------------------------------------------------------|
Tap to rate this tab
 
# A B C D E F G H I J K L M N O P Q R S T U V W X Y Z