Twiztid - Welcome Home tab

This song was played in Drop D (D,A,D,G,B,e)

Welcome home
Intro
e|-------------------------------------------------------|
B|-------------------------------------------------------|
G|-------------------------------------------------------|
D|-------------------------------------------------------|
A|-10-9-3-0----------------------------------------------|
D|-10-9-3-0----------------------------------------------|
PM-------------------------------------------------------|

verse 1:
e|-------------------------------------------------------|
B|-------------------------------------------------------|
G|-------------------------------------------------------|
D|-------------------------------------------------------|
A|------------------------10-9-3-0-3-0-----0-10-9-3-0-3-0|
D|-000-0-0-0-0-0-0-0-00-0-10-9-3-0-3-0-----0-10-9-3-0-3-0|

PM-------------------------------------------------------|

pre-Chorus 1:
e|-----------------------------------------------------|
B|-----------------------------------------------------|
G|-----------------------------------------------------|
D|-----------------------------------------------------|
A|-5-/8-7-5-5-3--5-/8-7-5-5-5-/8-7-5-5-3---------------|
D|-----------------------------------------------------|

e|----------------------------|---------------------------------------|
B|----------------------------|---------------------------------------|
G|----------------------------|---------------------------------------|
D|----------------------------|---------------------------------------|
A|-x-x-x-x-12h13h12-x-x-10h12-|-x-x-x-x-12h13h12-x-x-10h12-12-X-------|
D|-x-x-x-x----------x-x-------|-x-x-x-x----------x-x------ -----------|
	   repeat(2x)     than

e|-------|--------------------|----------------------------------------|
B|-------|--------------------|----------------------------------------|
G|-------|--------------------|----------------------------------------|
D|-------|--------------------|--------------D string scrape 3 time----|
A|-3\0---|-3-0----------------|-0--------------------------------------|
D|-3\0---|-3-0----------------|-0--------------------------------------|
 1st time       2nd time


Chorus 1:
e|---------------------------------------------------------------|
B|---------------------------------------------------------------|
G|-----------------------------------------(3)---(3)-------------|
D|-----------------------------------------(3)---(3)-------------|
A|-10-10-0----10-10-0----3-3-0---10-10-3-0-(3)-0-(3)-0-10-10-0---|
D|-10-10-0----10-10-0----3-3-0---10-10-3-0-(3)-0-(3)-0-10-10-0---|
PM------|     Pm---|    PM--|  PM--------------------------------|

e|-----------------------------------------------------------|
B|-----------------------------------------------------------|
G|-----------------------------------------------------------|
D|-----------------------------------------------------------|
A|-10-10-0----10-10-0----3-3-0Tremolo bar pulling up slowly--|
D|-10-10-0----10-10-0----3-3-0-------------------------------|
PM------|     Pm---|    PM-----------------------------------|

The last chorus is the same thing but on a different pick up setting. At the end he does 
tremolo bar again,and switchs
it back to the pick up that he was on in the frist of the song.But the tremolo is played 
b/c he goes half way from
how he did it the frist time and he quickly goes back down to the strings level.And he 
with a harmonic at the every
end of the song.

e|-----------------------------------------------------|
B|-----------------------------------------------------|
G|-----------------------------------------------------|
D|-----------------------------------------------------|
A|-----------------------------------------------------|
D|-(3)-------------------------------------------------|

Pm - Palm Mute
/ - Slide up
\ - Slide down
x - Mute
X - Heavy Mute
() - Harmonic

Ooooooooooh yea... and MCL HOMIES ^_^
Tap to rate this tab
 
# A B C D E F G H I J K L M N O P Q R S T U V W X Y Z