Song name
# A B C D E F G H I J K L M N O P Q R S T U V W X Y Z

Twiztid - Afraid Of Me tab

Twiztid

Afraid of Me



Main Riff:
e|-------------------------------------------------------|
B|-------------------------------------------------------|
G|------4-5----------4-5----------4-5---------7-5---5---5|
D|----2------------2------------2-----------7------------|
A|--0------------3----------3-0-----------5-------5---3--|
E|-------------------------------------------------------|
 
Chorus:
e|-----------------------------------------------------|
B|-----------------------------------------------------|
G|-----------------------------------------------------|
D|--7---10--12---10-12---------------------------------|
A|--7---10--12---10-12---------------------------------|
E|--5---8---10---8--10---------------------------------|



Im working on a guitar pro of this as we speak ^_^ and darkness
Mcl!
Tap to rate this tab
 
# A B C D E F G H I J K L M N O P Q R S T U V W X Y Z