Song name
# A B C D E F G H I J K L M N O P Q R S T U V W X Y Z

Twiztid - We Dont Die tab

Legend: /:slide
        ~:let ring

Intro/1 Verse Riff
e-----------------------------------------------------|
B-----------------------------------------------------|
G-----------------------------------------------------|
D---------4-4--------------------------------7-7-5-5--|
A-4-4-4-4-4-4--4-4-4-4-4/5-5-5-5-5/7-7-7-7-7-7-7-5-5--|
E-2-2-2-2-2-2--2-2-2-2-2/3-3-3-3-3/5-5-5-5-5-5-5-3-3--|

Chorus/Another Verse Riff
e---------------------|
B---------------------|
G---------------6--4--|
D-4~----5~--7~--7--5--|
A-4~--4/5~--7~--7--5--|
E-2~--2/3~--5~--5--3--|

Intro/1 Verse Riff
e-----------------------------------------------------|
B-----------------------------------------------------|
G-----------------------------------------------------|
D---------4-4--------------------------------7-7-5-5--|
A-4-4-4-4-4-4--4-4-4-4-4/5-5-5-5-5/7-7-7-7-7-7-7-5-5--|
E-2-2-2-2-2-2--2-2-2-2-2/3-3-3-3-3/5-5-5-5-5-5-5-3-3--|

Chorus/Another Verse Riff
e---------------------|
B---------------------|
G---------------6--4--|
D-4~----5~--7~--7--5--|
A-4~--4/5~--7~--7--5--|
E-2~--2/3~--5~--5--3--|

Intro/1 Verse Riff
e-----------------------------------------------------|
B-----------------------------------------------------|
G-----------------------------------------------------|
D---------4-4--------------------------------7-7-5-5--|
A-4-4-4-4-4-4--4-4-4-4-4/5-5-5-5-5/7-7-7-7-7-7-7-5-5--|
E-2-2-2-2-2-2--2-2-2-2-2/3-3-3-3-3/5-5-5-5-5-5-5-3-3--|

Chorus/Another Verse Riff
e---------------------|
B---------------------|
G---------------6--4--|
D-4~----5~--7~--7--5--|
A-4~--4/5~--7~--7--5--|
E-2~--2/3~--5~--5--3--|
Tap to rate this tab
# A B C D E F G H I J K L M N O P Q R S T U V W X Y Z