Song name
# A B C D E F G H I J K L M N O P Q R S T U V W X Y Z

Two Door Cinema Club - Undercover Martyn tab

Guitar 1 - Alex

Intro
e|---------------------------------|
B|77777777777777779999999999999999-|
G|77777777777777779999999999999999-|
D|77777777777777779999999999999999-|
A|---------------------------------|
E|---------------------------------|

Verse
e|---------------------------|
B|7~----------5~-----9~------|
G|7~----------6~-----9~------|
D|7~----------6~-----9~------|
A|---------------------------|
E|---------------------------|x2

e|------------------------|
B|--7-----7-----5-----9---|
G|-7-7---7-7---6-6---9-9--|
D|7---7-7---7-6---6-9---9-|
A|------------------------|
E|------------------------|x2

Chorus is the same as the Intro

Verse

Chorus

Break
e|-------------|
B|---------7-7-|
G|6--6--6--x-x-|
D|7--7--7--7-7-|
A|-------------|
E|-------------|

Outro
e|------------------------|
B|------------------------|
G|666--666444-666--666444-|
D|777--777777-777--777777-|
A|------------------------|
E|------------------------|

then
e|---------------------------------|
B|---------------------------------|
G|66666666666664446666666666666444-|
D|77777777777777777777777777777777-|
A|---------------------------------|
E|---------------------------------|

Guitar 2 - Sam

Intro
e|--9b10r9-----12b14r12-9-12-9----9b10r9-----12b14r12-9-------|
B|10------10-10-----------------10------10-10-----------12-10-|
G|------------------------------------------------------------|
D|------------------------------------------------------------|
A|------------------------------------------------------------|
E|------------------------------------------------------------|

Verse - "To the basement people, to the basement"
e|--------------------------------------------------------------------|
B|--------------------------------------------------------------------|
G|2222222222222222/666666666\11111112222222222222222/66666666\1111111-|
D|----------------------------------4444444444444444/77777777\2222222-|
A|--------------------------------------------------------------------|
E|--------------------------------------------------------------------|

Chorus is same as Intro

Verse

Chorus

Break
e|-------------------------|
B|7--7--7-10107--7--7-1010-|
G|x--x--x-x-x-x--x--x-x-x--|
D|4--4--4-7-7-4--4--4-7-7--|
A|-------------------------|
E|-------------------------|

Outro- Play this chord after Alex strums his
e|------------------------------|
B|------------------------------|
G|-----14-------------14--------|
D|-----x--------------x---------|
A|-----12-------------12--------|
E|------------------------------|

Below i've tabbed out both Guitars just so you can see how it fits in cos it can be hard 
ehar on the studio version
e|----------------------------|
B|----------------------------|
G|666-14-666444-666-14-666444-|
D|777-x--777777-777-x--777777-|
A|----12------------12--------|
E|----------------------------|

And then when it all speeds up play this until the end of the song
e|------------------------------------------------------|
B|------------------------------------------------------|
G|1414-141414-141414-141414-141414-141414-141414-141414-|
D|x-x--x-x-x--x-x-x--x-x-x--x-x-x--x-x-x--x-x-x--x-x-x--|
A|1212-121212-121212-121212-121212-121212-121212-121212-|
E|------------------------------------------------------|

Live he plays this instead
e|1717-171717-171717-171717-171717-171717-171717-171717-|
B|x-x--x-x-x--x-x-x--x-x-x--x-x-x--x-x-x--x-x-x--x-x-x--|
G|1414-141414-141414-141414-141414-141414-141414-141414-|
D|------------------------------------------------------|
A|------------------------------------------------------|
E|------------------------------------------------------|

Done :D

Should be all correct

I have to post you a link to the myspace to prove they exist as a band

Here it is http://www.myspace.com/twodoorcinemaclub
Tap to rate this tab
# A B C D E F G H I J K L M N O P Q R S T U V W X Y Z