Song name
# A B C D E F G H I J K L M N O P Q R S T U V W X Y Z

Two Door Cinema Club - Cigarettes In The Theatre tab

This is only a tab of Sam's part (lead guitar)

Intro/Main Riff
e|15-15-15-15-15-15-15-14-14-14-14-14-14-14-14---14--12--12--12--12--12--12---12-|
B|---------------------------------------------15--15--15--15--15--15--15--15----|
G|-------------------------------------------------------------------------------|
D|-------------------------------------------------------------------------------|
A|-------------------------------------------------------------------------------|
E|-------------------------------------------------------------------------------|

Verse
e|--------------------------------10---------------10------|
B|------12-10---10---10-------------13-12-10---------13-12-|
G|12---------12----9---12-11--12-------------12-12---------|
D|---12-------------------------12-------------------------|
A|---------------------------------------------------------|
E|---------------------------------------------------------|

Chorus
e|12-12-12-12-12--12--12--12--12--12--12----------------------------------------|
B|--------------15--15--15--15--15--15--15----15--12--12--12--12--12--12--12----|
G|------------------------------------------14--14--14--14--14--14--14--14------|
D|------------------------------------------------------------------------------|
A|------------------------------------------------------------------------------|
E|------------------------------------------------------------------------------|

e|--------------------------------------------------------------------------|
B|-------------------------------------------------------/15-15-15-15-15-15-|
G|11-11-11-12-12-12-11-11-11-12-12-12--12-12-12-12-12-12--------------------|
D|--------------------------------------------------------------------------|
A|--------------------------------------------------------------------------|
E|--------------------------------------------------------------------------|

Outro
e|-------5-5-|
B|0003000----|
G|-----------|
D|-----------|
A|-----------|
E|-----------|

Last Time
e|--------15-15\-|
B|0003000--------|
G|--------12-12\-|
D|---------------|
A|---------------|
E|---------------|
Tap to rate this tab
# A B C D E F G H I J K L M N O P Q R S T U V W X Y Z