Song name
# A B C D E F G H I J K L M N O P Q R S T U V W X Y Z

Two Door Cinema Club - Undercover Martyn tab

I tabbed this from a promo version of their awesome album tourist history
which is a little different to some versions I've seen. It should fit well
though :-) Some info on the band here: 

http://www.youtube.com/watch?v=-ozFTKfOHPU&feature=related

Intro:

Guitar 1:

e|------------------------------------|
B|--------------------9-9-9-9-9-9-9-9-|
G|-6-6-6-6-6-6-6-6----9-9-9-9-9-9-9-9-| x1 on own then joined by guitar 2
D|-7-7-7-7-7-7-7-7--------------------|
A|-5-5-5-5-5-5-5-5----9-9-9-9-7-7-7-7-|
E|------------------------------------|

Guitar 2:

e|---------------------------------------|
B|----14h15p14---------17b19r17-14-17-14-|
G|-14----------14--14--------------------|
D|---------------------------------------|
A|---------------------------------------|
E|---------------------------------------|

e|----------------------------------------|
B|----14h15p14---------17b19r17-14-12-----|
G|-14----------14--14-----------------14\-|
D|----------------------------------------|
A|----------------------------------------|
E|----------------------------------------|

Verse: "And she spoke..."

e|-----------5--------|
B|-5---------5-----9--|
G|-6---------6-----9--| x2
D|-7---------7--------|
A|-5---------0-----9--|
E|--------------------|

Pre Chorus: "To the basement people..."

Guitar 1:

e|-----------------5-5-5-5---------|
B|-5-5-5-5-5-5-5-5-5-5-5-5-9-9-9-9-|
G|-6-6-6-6-6-6-6-6-6-6-6-6-9-9-9-9-| x2
D|-7-7-7-7-7-7-7-7-7-7-7-7---------|
A|-5-5-5-5-5-5-5-5-0-0-0-0-9-9-9-9-|
E|---------------------------------|

Guitar 2:

e|------------------------------|---------------|-----------|
B|-------5--------------5-------|-------5-------|-------9---|
G|---6-----6---6----6-----6---6-|---6-----6---6-|---9-----9-| x2
D|-----7-----7--------7-----7---|-----7-----7---|-----------|
A|-5--------------5-------------|-0-------------|-9---9-----|
E|------------------------------|---------------|-----------|

Chorus: "You hid the last time..."

Guitar 1:

e|------------------------------------|
B|-7-7-7-7-7-7-7-7----9-9-9-9-9-9-9-9-|
G|-6-6-6-6-6-6-6-6----9-9-9-9-9-9-9-9-| x4
D|-7-7-7-7-7-7-7-7--------------------|
A|-5-5-5-5-5-5-5-5----9-9-9-9-7-7-7-7-|
E|------------------------------------|

Guitar 2:

e|---------------------------------------|
B|----14h15p14---------17b19r17-14-17-14-|
G|-14----------14--14--------------------|
D|---------------------------------------|
A|---------------------------------------|
E|---------------------------------------|

e|----------------------------------------|
B|----14h15p14---------17b19r17-14-12-----|
G|-14----------14--14-----------------14\-| Hold the 14~ on
D|----------------------------------------| the last time
A|----------------------------------------|
E|----------------------------------------|

Bridge:

Guitar 1:

e|--------------------------------|
B|-----------------------------77-|
G|------6-------6-------6------66-| x2
D|------7-------7-------7------77-|
A|------5-------5-------5------55-|
E|--------------------------------|

e|--------------------------------|
B|------7-------7-------7------77-|
G|------6-------6-------6------66-| x2
D|------7-------7-------7------77-|
A|------5-------5-------5------55-|
E|--------------------------------|

e|-------------------x-x-x-|--------------------x-x-x-|
B|-------77----5-5-5-x-x-x-|-5-5-5-77----5-5-5--x-x-x-|
G|-6-6-6-66----6-6-6-6-6-6-|-6-6-6-66----6-6-6--6-6-6-| x
D|-7-7-7-77----7-7-7-7-7-7-|-7-7-7-77----7-7-7--7-7-7-|
A|-5-5-5-------5-5-5-x-x-x-|-0-0-0-------0-0-0--x-x-x-|
E|-------------------7-7-7-|--------------------7-7-7-|

Guitar 2:

e|-xxxx----xxxx----xxxx----xxx---|
B|-xxxx----xxxx----xxxx----xxx---|
G|-xxxx----xxxx----xxxx----xxx---| x2
D|-xxxx----xxxx----xxxx----xxx---|
A|-xxxx----xxxx----xxxx----xxx---|
E|-xxxx----xxxx----xxxx----xxx---|

e|-xxxx----xxxx----xxxx----xx----|
B|-xxxx-7--xxxx-7--xxxx-7--xx-77-|
G|-xxxx-6--xxxx-6--xxxx-6--xx-66-| x2
D|-xxxx----xxxx----xxxx----xx----|
A|-xxxx----xxxx----xxxx----xx----|
E|-xxxx----xxxx----xxxx----xx----|

e|-------------------------|-------------------------|
B|------99-----------7-7-7-|------99-----------7-7-7-|
G|------99-----------6-6-6-|------99-----------6-6-6-| x4
D|-------------------7-7-7-|-------------------7-7-7-|
A|-------------------------|-------------------------|
E|-------------------------|-------------------------|

Depending on which version you have, I've seen one which goes on a bit from
here but the one i have goes straight back into the last chorus.

************************************
| /   slide up
| \   slide down
| h   hammer-on
| p   pull-off
| ~   vibrato
| +   harmonic
| x   Mute note
| b   Bend
| pb  Pre-bend
| br  Bend release
| pbr Pre-bend release
| brb Bend release bend

************************************
Tap to rate this tab
# A B C D E F G H I J K L M N O P Q R S T U V W X Y Z