Song name
# A B C D E F G H I J K L M N O P Q R S T U V W X Y Z

Two Door Cinema Club - What You Know tab

____________________________________________________________________________________
Tab description
____________________________________________________________________________________

Song:   What You Know
Artist: Two Door Cinema Club
Album:  Tourist History

Tabber: Lionel Ringenbach
Email:  ilovetrees@free.fr
Date:   April 7th, 2010

I did not transcribed how much times and in which order these parts have to be 
played but listen to the song one or two times and you will get it easily.

This is my first tab, so please, be kind !
For any comments or suggestion you can use the mail address above.


____________________________________________________________________________________
Guitar 1: standard tuning, capo on 8th fret, light distorsion
____________________________________________________________________________________

--- Intro/Chorus ---

Listen to the song and strum these chords

	Am C


--- Verse ---

      Am   G6   Em   F

e:----0----0----0----1----|
B:----1----0----0----1----|
G:----2----0----0----2----|
D:----2----0----2----3----|
A:----0----2----2----3----|
E:----x----3----0----1----|


--- Bridge ---

This part is a bit too noisy to be completely transcribed but this is how it starts

e:---------------------------|
B:---------------------------|
G:---------------------------|
D:--0--0-0-3-3-0--0-0-3-3-0--|
A:---------------------------|
E:---------------------------|


____________________________________________________________________________________
Guitar 2: standard tuning, no capo, clean
____________________________________________________________________________________

--- Intro/Chorus ---

e:--------14-----------------14-----------------14----------17-16-16-17-16-----|
B:--14-17----17-14-14--14-17----17----14--14-17----17-14-14----------------14--|
G:---------------------------------16------------------------------------------|
D:-----------------------------------------------------------------------------|
A:-----------------------------------------------------------------------------|
E:-----------------------------------------------------------------------------|

e:--------14-----------------14-----------------14----------17-16-16-17-16-----|
B:--14-17----17-14-14--14-17----17--------14-17----17-14-14----------------14--|
G:---------------------------------16-14---------------------------------------|
D:-----------------------------------------------------------------------------|
A:-----------------------------------------------------------------------------|
E:-----------------------------------------------------------------------------|


--- Verse ---

e:-----------------------------------|
B:--------/19-19-19/17-17-17-17-17/--|
G:--11-11----------------------------|
D:-----------------------------------|
A:-----------------------------------|
E:-----------------------------------|


____________________________________________________________________________________
Chords
____________________________________________________________________________________

Am  (x 0 2 2 1 0)
C   (x 3 2 0 1 0)
G6  (3 2 0 0 0 0)
Em  (0 2 2 0 0 0)
F   (1 3 3 2 1 1)
Tap to rate this tab
# A B C D E F G H I J K L M N O P Q R S T U V W X Y Z