Song name
# A B C D E F G H I J K L M N O P Q R S T U V W X Y Z

Two Door Cinema Club - Something Good Can Work Acoustic chords

Highlighted       Show chord diagrams
This is my first tab, so let me know what you think!
Capo5

Intro: 


e| |-0--------------|     e| |-0--------3-----|
B| |---3-1-0--------|     B| |---3-1-0--------|
G| |----------0-----|     G| |----------------|
D| |----------------|     D| |----------------|
A| |----------------|     A| |----------------|
E| |----------------|     E| |----------------|


C, G, Dm, Am

Verse:
C
There's a spanner in the works you know
G
You've gotta step up your game your game to make it to the top
Dm
So go

Am

C
You've gotta little competition now
G
You're going to find it hard to cope with living on your own
Dm
Now
G
Ohoh

Chorus:
C
Let's make this happen, girl
G
We're going to show the world that something good can work and it can work for
Dm
You
Am
And you know that it will
C
Let's get this started, girl
G
We're moving up, moving up, it's been a lot to change but
Dm
You
Am
Will always get what you want

Verse:
C
It took a little time to make a little better
G
Its only going up just one thing then another
Dm
You know
Am
You know
C
It took a little time to make a little better
G
Its only going up just one thing then another
Dm
You know
G
You know

Chorus:
C
Let's make this happen, girl
G
We're going to show the world that something good can work and it can work for
Dm
You
Am
And you know that it will
C
Let's get this started, girl
G
We're moving up, moving up, it's been a lot to change but
Dm
You
Am
Will always get what you want

Bridge:
C, G, Dm, Am

e| |--------0-3-0---|     e| |----------------|
B| |-0-1-3--------3-|     B| |-0-1-0---0-0----|
G| |----------------|     G| |-------2--------|
D| |----------------|     D| |----------------|
A| |----------------|     A| |----------------|
E| |----------------|     E| |----------------|

Am

Chorus:
C
Let's make this happen, girl
G
We're going to show the world that something good can work and it can work for
Dm
You
Am
And you know that it will
C
Let's get this started, girl
G
We're moving up, moving up, it's been a lot to change but
Dm
You
Am
Will always get what you want
C
Let's make this happen, girl
G
We're going to show the world that something good can work and it can work for
Dm
You
Am
And you know that it will
C
Let's get this started, girl
G
We're moving up, moving up, it's been a lot to change but
Dm
You
Am
Will always get what you want
Tap to rate this tab
 
# A B C D E F G H I J K L M N O P Q R S T U V W X Y Z