Two Door Cinema Club - Cigarettes In The Theatre tab

Song: Cigarettes In The Theatre
Album: Tourist History
Artist: Two Door Cinema Club

this is not 100% so what i recommend is that you find your own way. and there are many 
chords that would sound good with this song, so EXPERIMENT.

Remember for any double staves, the lead is always the one on top.


Intro
Second Guitar (repeats throughout the intro)
e|------------------------------------------------------------------|
G|-0-0-0-0-0-0-0-0-0-0-0-0-0-0-0-0-0-0-0-0-0-0-0-0-0-0-0-0-0-0-0-0-0|
B|------------------------------------------------------------------|
D|------------------------------------------------------------------|
A|------------------------------------------------------------------|
E|------------------------------------------------------------------|

Lead Guitar
e|------------------------------------------------------------------|
G|------------------------------------------------------------------|
B|--2-2-2b4-/-2-/11~-----2-2-2b4-/-2-/12~-/11~-------x2-------------|
D|------------------------------------------------------------------|
A|------------------------------------------------------------------|
E|------------------------------------------------------------------|

repeat 3 times                        fourth repeat
e|----------------5--5--5/-3-3/7~---|-----------------5-5-5/3~------|
G|--0-0-0-3-0-0-0-------------------|---0-0-0-3-0-0-0---------------|
B|---------------------------------o|-------------------------------|
D|---------------------------------o|-------------------------------|
A|----------------------------------|-------------------------------|
E|----------------------------------|-------------------------------|

Pre verse (timing and rhythm is not shown, sorry) [repeat once]
Lead Top, Second bottom

e|-15-15-15-15-15-15-15-15-15-15-15-14-14-14-14-14-14-14-14-14-14-14|
G|------------------------------------------------------------------|
B|------------------------------------------------------------------|
D|------------------------------------------------------------------|
A|------------------------------------------------------------------|
E|------------------------------------------------------------------|
 |                                                                  |
 |                                                                  |
e|-3--3--3--3--3--3--3--3--3--3--3--3--3--3--3--3--3--3--3--3--3----|
G|-3--3--3--3--3--3--3--3--3--3--3--3--3--3--3--3--3--3--3--3--3---/|
B|-4--4--4--4--4--4--4--4--4--4--4--4--4--4--4--4--4--4--4--4--4---/|
D|-5--5--5--5--5--5--5--5--5--5--5--4--4--4--4--4--4--4--4--4--4---/|
A|------------------------------------------------------------------|
E|------------------------------------------------------------------|

e|-10-10-10-10-10-10-10-10-10-10-10-10-12-x-12-x-10-x-10-x-12-------|
G|------------------------------------------------------------------|
B|------------------------------------------------------------------|
D|------------------------------------------------------------------|
A|------------------------------------------------------------------|
E|------------------------------------------------------------------|
 |                                                                  |
e|------------------------------------------------------------------|
G|-7-7-7-7-7-7-7-7-7-7-7-7-7-7-7-7-7-7-x-7-x-7-x-7-x-7-x-7-x-7------|
B|-7-7-7-7-7-7-7-7-7-7-7-7-7-7-7-7-7-7-x-7-x-7-x-7-x-7-x-7-x-7------|
D|-9-9-9-9-9-9-9-9-9-9-9-9-9-9-9-9-9-9-x-9-x-9-x-9-x-9-x-9-x-9------|
A|------------------------------------------------------------------|
E|------------------------------------------------------------------|

Verse
Lead part
e|------------------------------10-8------------10-8----------------|
G|-8---12-10-8-10---10-8-7-8----------12-10-8-8-------12------------|
B|---7------------9----------7--------------------------------------|
D|------------------------------------------------------------------|
A|------------------------------------------------------------------|
E|------------------------------------------------------------------|


Second time through, second guitar joins
Lead
e|------------------------------10-8------------10-8----------------|
G|-8---12-10-8-10---10-8-7-8----------12-10-8-8-------12------------|
B|---7------------9----------7--------------------------------------|
D|------------------------------------------------------------------|
A|------------------------------------------------------------------|
E|------------------------------------------------------------------|
 |                                                                  |
 |                                                                  |
e|------------------------------------------------------------------|
G|-----------------------------8--8-7~------------------------------|
B|---------------------------7--------------------------------------|
D|--------------------------9---------------------------------------|
A|------------------------------------------------------------------|
E|------------------------------------------------------------------|

Chorus [repeat once]

e|-------12-12-12-10-10-10-10-12-12-12-12-10-10-10-10---------------|
G|----------------------------------------------------10-10-10-10---|
B|------------------------------------------------------------------|
D|------------------------------------------------------------------|
A|------------------------------------------------------------------|
E|------------------------------------------------------------------|
 |                                                                  |
 |                                                                  |
e|------------------------------------------------------------------|
G|------8--8--x--8--8--8--x--8--x--8--x--8--8--8--x--7--7--x--7--7--|
B|------9--9--x--9--9--9--x--9--x--9--x--9--9--9--x--7--7--x--7--7--|
D|------9--9--x--9--9--9--x--9--x--9--x--9--9--9--x--9--9--x--9--9--|
A|------7--7--x--7--7--7--x--7--x--7--x--7--7--7--x-----------------|
E|------------------------------------------------------------------|

e|------------------------------------------------------------------|
G|-12-12-12-12-10-10-10-10-12-12-12-12-7-7-7-7-8-8-8-8-7-7-7-7------|
B|------------------------------------------------------------------|
D|------------------------------------------------------------------|
A|------------------------------------------------------------------|
E|------------------------------------------------------------------|
 |                                                                  |
 |                                                                  |
e|------------------------------------------------------------------|
G|-7--x--7--x--7--x--7--7--7--x--7-/-12--12-x-12--12--12-x--12--x---|
B|-7--x--7--x--7--x--7--7--7--x--7-/-12--12-x-12--12--12-x--12--x---|
D|-9--x--9--x--9--x--9--9--9--x--9-/-12--12-x-12--12--12-x--12--x---|
A|------------------------------------------------------------------|
E|------------------------------------------------------------------|

e|------------------------------------------------------------------|
G|-8-8-8-8-7-7-7-7-7-7-7-7-/-15-15-15-15-15-15-15-15-15-15-15-15-15-|
B|------------------------------------------------------------------|
D|------------------------------------------------------------------|
A|------------------------------------------------------------------|
E|------------------------------------------------------------------|
 |                                                                  |
 |                                                                  |
e|------------------------------------------------------------------|
G|-12--x-12--12--12--x--12--12--12--12--12--12--12--12--12--12--12--|
B|-12--x-12--12--12--x--12--12--12--12--12--12--11--11--11--11--11--|
D|-12--x-12--12--12--x--12--12--12--12--12--12--12--12--12--12--12--|
A|------------------------------------------------------------------|
E|------------------------------------------------------------------|

Pre verse [AGAIN]

Verse [AGAIN]

Chorus [AGAIN]

Pre Verse [YET AGAIN]

Bridge

Lead guitar repeats this for the rest of the song
e|----------------5--5--5/-3-3/7~---|
G|--0-0-0-3-0-0-0-------------------|
B|---------------------------------o|
D|---------------------------------o|
A|----------------------------------|
E|----------------------------------|

WHILE the Second guitar plays this at 2:25 minutes [Repeat this once]

e|--------------------------------------------|
G|--------------------------------------------|
B|----------------4-4-4----------------4-4-4--|
D|--------2-------------------2---------------|
A|--3-3-3---3-3-3-------3-3-3---3-3-3---------|
E|--------------------------------------------|

e|--------------------------------------------|
G|--------------------------------------------|
B|--------------------------------------------|
D|----------------5-5-5---------------5-5-5---|
A|-------2--------------------2---------------|
E|-3-3-3---3-3-3--------3-3-3---3-3-3---------|

Then the Second guitar plays these two chords over and over til the end of the song. The 
is really just the chorus with different chords for the second guitar.

First Chord [im not sure about the names of them tho]

e|---|
G|---|
B|-4-|
D|-5-|
A|-3-|
E|---|

Second Chord [this is just a G chord]

e|---|
G|---|
B|---|
D|-5-|
A|-5-|
E|-3-|

So that was it. REALLY good song. Catchy tooo and fun to play around with. Hope you enjoy.
Tap to rate this tab
 
# A B C D E F G H I J K L M N O P Q R S T U V W X Y Z