Song name
# A B C D E F G H I J K L M N O P Q R S T U V W X Y Z

Two Door Cinema Club - This Is The Life tab

I'm almost sure that this tab is 100% correct, but at last you can play it however you 
this is my version and I hope you enjoy playing this great song.

... = picking


Intro
e|-----------------------------------------------------|
B|--19...--17...--9--9--9--19...--10...--12--10--9--9--|
G|-----------------------------------------------------|
D|-----------------------------------------------------|
A|-----------------------------------------------------|
E|-----------------------------------------------------|


e|----------------------------------------|
B|-5--7b9r7--7b9r7--7b9r7--5--0--5--------|
G|---------------------------------   X 2-|
D|----------------------------------------|
A|----------------------------------------|
E|----------------------------------------|


e|-------------------------------------------------------|
B|----19...--17...--9--9--9--19...--10...--12--10--9--9--|
G|-------------------------------------------------------|
D|-------------------------------------------------------|
A|-------------------------------------------------------|
E|-------------------------------------------------------|


e|----------------------------------------|
B|-5--7b9r7--7b9r7--7b9r7--5--0--5--------|
G|---------------------------------   X 2-|
D|----------------------------------------|
A|----------------------------------------|
E|----------------------------------------|

Verse 1
e|------------------------------------------------------------|
B|------------------16--16--16--------------------17--17--16--|
G|------------------16--16--16--------------------16--16--16--|  X 4
D|----------18----------------------------18------------------|
A|--16--16------19----------------16--16------19--------------|
E|------------------------------------------------------------|


e|--------------------------------------------------|
B|--9--9--7--7--5--5--4--4--2--2--0--0--2--2--4--4--|
G|--------------------------------------------------|   X 2
D|--------------------------------------------------|
A|--------------------------------------------------|
E|--------------------------------------------------|


e|----------------------------------------|
B|-5--7b9r7--7b9r7--7b9r7--5--0--5--------|
G|---------------------------------   X 2-|
D|----------------------------------------|
A|----------------------------------------|
E|----------------------------------------|

Chorus 1
e|--------------------------------------|
B|--9...--9b10...--9...--9b10...--9--7--|
G|--------------------------------------|
D|--------------------------------------|
A|--------------------------------------|
E|--------------------------------------|


e|----------------------------------------------------|
B|--17--19b21r19--19b21r19--19b21r19--17--0--17-------|
G|----------------------------------------------  X 2-|
D|----------------------------------------------------|
A|----------------------------------------------------|
E|----------------------------------------------------|


e|--------------------------------------|
B|--9...--9b10...--9...--9b10...--9--7--|
G|--------------------------------------|
D|--------------------------------------|
A|--------------------------------------|
E|--------------------------------------|


e|----------------------------------------------------|
B|--17--19b21r19--19b21r19--19b21r19--17--0--17-------|
G|----------------------------------------------  X 2-|
D|----------------------------------------------------|
A|----------------------------------------------------|
E|----------------------------------------------------|

Verse 2
e|------------------------------------------------------------|
B|------------------16--16--16--------------------17--17--16--|
G|------------------16--16--16--------------------16--16--16--|  X 4
D|----------18----------------------------18------------------|
A|--16--16------19----------------16--16------19--------------|
E|------------------------------------------------------------|


e|------------------------------------------------------------|
B|------------------16--16--16--------------------17--17--16--|
G|------------------16--16--16--------------------16--16--16--|  X 4
D|----------18----------------------------18------------------|
A|--16--16------19----------------16--16------19--------------|
E|------------------------------------------------------------|


e|--------------------------------------------------|
B|--9--9--7--7--5--5--4--4--2--2--0--0--2--2--4--4--|
G|--------------------------------------------------|   X 2
D|--------------------------------------------------|
A|--------------------------------------------------|
E|--------------------------------------------------|


e|----------------------------------------|
B|-5--7b9r7--7b9r7--7b9r7--5--0--5--------|
G|---------------------------------   X 2-|
D|----------------------------------------|
A|----------------------------------------|
E|----------------------------------------|

Chorus 2
e|--------------------------------------|
B|--9...--9b10...--9...--9b10...--9--7--|
G|--------------------------------------|
D|--------------------------------------|
A|--------------------------------------|
E|--------------------------------------|

e|----------------------------------------------------|
B|--17--19b21r19--19b21r19--19b21r19--17--0--17-------|
G|----------------------------------------------  X 2-|
D|----------------------------------------------------|
A|----------------------------------------------------|
E|----------------------------------------------------|


e|--------------------------------------|
B|--9...--9b10...--9...--9b10...--9--7--|
G|--------------------------------------|
D|--------------------------------------|
A|--------------------------------------|
E|--------------------------------------|


e|----------------------------------------------------|
B|--17--19b21r19--19b21r19--19b21r19--17--0--17-------|
G|----------------------------------------------  X 2-|
D|----------------------------------------------------|
A|----------------------------------------------------|
E|----------------------------------------------------|


e|--------------------------------------------------------|
B|----19...--17...--9--9--9--19...--10...--12--10--9--9---|
G|--------------------------------------------------------|
D|--------------------------------------------------------|
A|--------------------------------------------------------|
E|--------------------------------------------------------|


e|----------------------------------------|
B|-5--7b9r7--7b9r7--7b9r7--5--0--5--------|
G|---------------------------------   X 2-|
D|----------------------------------------|
A|----------------------------------------|
E|----------------------------------------|


e|--------------------------------------------------------|
B|----19...--17...--9--9--9--19...--10...--12--10--9--9---|
G|--------------------------------------------------------|
D|--------------------------------------------------------|
A|--------------------------------------------------------|
E|--------------------------------------------------------|


e|----------------------------------------|
B|-5--7b9r7--7b9r7--7b9r7--5--0--5--------|
G|---------------------------------   X 2-|
D|----------------------------------------|
A|----------------------------------------|
E|----------------------------------------|


e|------------------------------------------------------------|
B|------------------16--16--16--------------------17--17--16--|
G|------------------16--16--16--------------------16--16--16--|  X 4
D|----------18----------------------------18------------------|
A|--16--16------19----------------16--16------19--------------|
E|------------------------------------------------------------|


e|--------------------------------------------------|
B|--9--9--7--7--5--5--4--4--2--2--0--0--2--2--4--4--|
G|--------------------------------------------------|   X 2
D|--------------------------------------------------|
A|--------------------------------------------------|
E|--------------------------------------------------|


e|----------------------------------------|
B|-5--7b9r7--7b9r7--7b9r7--5--0--5--------|
G|---------------------------------   X 2-|
D|----------------------------------------|
A|----------------------------------------|
E|----------------------------------------|


e|--------------------------------------|
B|--9...--9b10...--9...--9b10...--9--7--|
G|--------------------------------------|
D|--------------------------------------|
A|--------------------------------------|
E|--------------------------------------|


e|-----------------------------------------------|
B|--17--19b21r19--19b21r19--19b21r19--17--0--17--|
G|-----------------------------------------------|  X 2
D|-----------------------------------------------|
A|-----------------------------------------------|
E|-----------------------------------------------|


e|--------------------------------------|
B|--9...--9b10...--9...--9b10...--9--7--|
G|--------------------------------------|
D|--------------------------------------|
A|--------------------------------------|
E|--------------------------------------|


e|-----------------------------------------------|
B|--17--19b21r19--19b21r19--19b21r19--17--0--17--|
G|-----------------------------------------------|  X 2
D|-----------------------------------------------|
A|-----------------------------------------------|
E|-----------------------------------------------|


e|------------------------------------------------------------|
B|------------------16--16--16--------------------17--17--16--|
G|------------------16--16--16--------------------16--16--16--|  X 4
D|----------18----------------------------18------------------|
A|--16--16------19----------------16--16------19--------------|
E|------------------------------------------------------------|


e|------------------------------------------------------------|
B|------------------16--16--16--------------------17--17--16--|
G|------------------16--16--16--------------------16--16--16--|  X 4
D|----------18----------------------------18------------------|
A|--16--16------19----------------16--16------19--------------|
E|------------------------------------------------------------|


e|--------------------------------------------------|
B|--9--9--7--7--5--5--4--4--2--2--0--0--2--2--4--4--|
G|--------------------------------------------------|   X 2
D|--------------------------------------------------|
A|--------------------------------------------------|
E|--------------------------------------------------|


e|----------------------------------------|
B|-5--7b9r7--7b9r7--7b9r7--5--0--5--------|
G|---------------------------------   X 2-|
D|----------------------------------------|
A|----------------------------------------|
E|----------------------------------------|


e|--------------------------------------|
B|--9...--9b10...--9...--9b10...--9--7--|
G|--------------------------------------|
D|--------------------------------------|
A|--------------------------------------|
E|--------------------------------------|


e|-----------------------------------------------|
B|--17--19b21r19--19b21r19--19b21r19--17--0--17--|
G|-----------------------------------------------|  X 2
D|-----------------------------------------------|
A|-----------------------------------------------|
E|-----------------------------------------------|

This are the strings that I play, you just have to follow the rhythm of the song

e|---x----x------|
B|---x----x------|
G|---x----x------|
D|---18---21-----|
A|---18---18-----|
E|---x----x------|


e|------------------------------|
B|------------------------------|
G|------18----------------------|  X 3
D|----------19--18------18------|
A|--16--------------19------19--|
E|------------------------------|


e|----------------------|
B|----------------------|
G|------18--------------|
D|----------19--18--19--|
A|--16------------------|
E|----------------------|


e|------------------------------|
B|--17--17----------------------|
G|----------20--18--------------|  X 3
D|------------------21--18--21--|
A|------------------------------|
E|------------------------------|


e|----------------------|
B|--17--17------17--19--|
G|----------20----------|
D|----------------------|
A|----------------------|
E|----------------------|


e|----------------------------|
B|--21b23--17--19--17---------|
G|---------------------18b20--|  X 3
D|----------------------------|
A|----------------------------|
E|----------------------------|


e|------------|
B|--17--17/0--|
G|------------|
D|------------|
A|------------|
E|------------|

ENJOY!
Tap to rate this tab
 
# A B C D E F G H I J K L M N O P Q R S T U V W X Y Z