Song name
# A B C D E F G H I J K L M N O P Q R S T U V W X Y Z

Two Door Cinema Club - I Can Talk tab

-------------------------------------------------------------------------------
        I Can Talk - Two Door Cinema Club
-------------------------------------------------------------------------------

Tabbed by: Crossleylaw
Email: ptoby_lc@hotmail.com

I made this tab by ear and it's based on the CD track, because the live 
version is kind of different in the chorus and the picking part,but at last 
is the same. You just have to follow the right time in the instrumental 
part and thats it, hope you like it!

Tuning: Standard

. = Picking

Intro
e|------------15.--17.--20.-----------------------|
B|--13.--17.-----------------17.--18--17--18--17--|
G|------------------------------------------------|
D|------------------------------------------------|
A|------------------------------------------------|
E|------------------------------------------------|

e|------------------------17.------15.--|
B|--13.--17.----------------------------|
G|------------12/14--14.-------14.------|
D|--------------------------------------|
A|--------------------------------------|
E|--------------------------------------|

Verse 1
e|---X------X-----19-----20--|
B|--17-----15------X------X--|
G|--16-----16------X------X--|  x 2
D|---X------X-----16-----17--|
A|--14-----14------X------X--|
E|---X------X------X------X--|

Chorus 1 (x2)
e|------------15.--17.--20.-----------------------|
B|--13.--17.-----------------17.--18--17--18--17--|
G|------------------------------------------------|
D|------------------------------------------------|
A|------------------------------------------------|
E|------------------------------------------------|

e|------------------------17.------15.--|
B|--13.--17.----------------------------|
G|------------12/14--14.-------14.------|
D|--------------------------------------|
A|--------------------------------------|
E|--------------------------------------|

Verse 2
e|------19.--15.----0--+24------19.--|
B|--17----------------------15-------|
G|-----------------------------------|
D|-----------------------------------|
A|-----------------------------------|
E|-----------------------------------|

e|---X------X-----19-----20--|
B|--17-----15------X------X--|
G|--16-----16------X------X--|  x 2
D|---X------X-----16-----17--|
A|--14-----14------X------X--|
E|---X------X------X------X--|

Chorus 2 (x2)
e|------------15.--17.--20.-----------------------|
B|--13.--17.-----------------17.--18--17--18--17--|
G|------------------------------------------------|
D|------------------------------------------------|
A|------------------------------------------------|
E|------------------------------------------------|

e|------------------------17.------15.--|
B|--13.--17.----------------------------|
G|------------12/14--14.-------14.------|
D|--------------------------------------|
A|--------------------------------------|
E|--------------------------------------|

Instrumental
e|------------17--|
B|----------------|
G|-----14---------|  x 4
D|----------------|
A|--0------0------|
E|----------------|

e|-----------17------------------------------15--|
B|------------------15\13------------13--13------|
G|----14-------------------14\12/14--------------|
D|-----------------------------------------------|
A|-0------0------0-------------------------------|
E|-----------------------------------------------|
                                                             x 2
e|------------17------------------------15--15/17------|
B|-------------------17\15--13---------------------17--|
G|-----14-----------------------14--14-----------------|
D|-----------------------------------------------------|
A|--0------0------0------------------------------------|
E|-----------------------------------------------------|

e|------------17--------------17----15.--|
B|---------------------------------------|
G|-----14--------------14----------------| 
D|---------------------------------------|
A|--0------0--------0------0-------------|
E|---------------------------------------|

Chorus 3 (x2)
e|------------15.--17.--20.-----------------------|
B|--13.--17.-----------------17.--18--17--18--17--|
G|------------------------------------------------|
D|------------------------------------------------|
A|------------------------------------------------|
E|------------------------------------------------|

e|------------------------17.------15.--|
B|--13.--17.----------------------------|
G|------------12/14--14.-------14.------|
D|--------------------------------------|
A|--------------------------------------|
E|--------------------------------------|

e|--17--|
B|------|
G|------|
D|------|
A|------|
E|------|
 
************************************
| /   slide up
| \   slide down
| h   hammer-on
| p   pull-off
| ~   vibrato
| +   harmonic
| x   Mute note
| b   Bend
| pb  Pre-bend
| br  Bend release
| pbr Pre-bend release
| brb Bend release bend
************************************
Tap to rate this tab
 
# A B C D E F G H I J K L M N O P Q R S T U V W X Y Z