Two Door Cinema Club - Something Good Can Work tab

-------------------------------------------------------------------------------
	       SOMETHING GOOD CAN WORK - Two Door Cinema Club
-------------------------------------------------------------------------------
Tabbed by: Chris Ennis
Email: chriss@ennis624.freeserve.co.uk

Tuning: Standard (eBGDAE)

This is my first tab and only the lead guitar part, but I reckon it is 100% 
accurate. Such a great song and no-one had 
tabbed the whole lead guitar part so I though I should!

ORDER: Intro X2, Verse, Chorus X2, Verse, Chorus X2, Solo, Chorus X2, Outro X2

INTRO / CHORUS

e|-17-15-------------------------------------17-15----------------------------|
B|-------17h18p17h18p17h18p17----------------------17h18p17h18p17h18p17-------|
G|----------------------------17-17h19p17h19----------------------------17-15-|
D|----------------------------------------------------------------------------|
A|----------------------------------------------------------------------------|
E|----------------------------------------------------------------------------|

VERSE

e|-------17-------17-------17-------17-------17-17-17-------17-17-17-------17-------------|
B|-------17-------17-------17-------17-------17-17-17-------17-17-17-------17-15-15-------|
G|----------------------------------------------------------------------------------12-14-|
D|-15-15----15-15----15-15----15-15----15-15----------15-15----------15-15----------------|
A|----------------------------------------------------------------------------------------|
E|----------------------------------------------------------------------------------------|

SOLO

e|----------------------------------------|
B|----------------------------------------|
G|-------------17-------------------------|
D|-14h15-15/19----19-17-14-15-14-12-14-15-|
A|----------------------------------------|
E|----------------------------------------|

OUTRO

e|-17-15-------------------------------------17-15----------------------------20-|
B|-------17h18p17h18p17h18p17----------------------17h18p17h18p17h18p17----------|
G|----------------------------17-17h19p17h19----------------------------17-15----|
D|-------------------------------------------------------------------------------|
A|-------------------------------------------------------------------------------|
E|-------------------------------------------------------------------------------|

ORDER: Intro X2, Verse, Chorus X2, Verse, Chorus X2, Solo, Chorus X2, Outro X2

************************************

| /   slide up
| h   hammer-on
| p   pull-off

************************************
Tap to rate this tab
 
# A B C D E F G H I J K L M N O P Q R S T U V W X Y Z