Two Door Cinema Club - What You Know tab

This is the Chorus Riff(Listen to the song while you play)
Capo the 9th
e|---0-12-14-12-0-0---0-12-14-12--------0-12-14-12-0-0-17-16-16-17-16-0|
B|-------------------------------12-14---------------------------------|
G|---------------------------------------------------------------------|
D|---------------------------------------------------------------------| Twice 
A|---------------------------------------------------------------------|
E|---------------------------------------------------------------------|

Same thing but at the end let the last note ring
e|---0-12-14-12-0-0---0-12-14-12--------0-12-14-12-0-0-17-16-16-17-16~~|
B|-------------------------------12-14---------------------------------|
G|---------------------------------------------------------------------|
D|---------------------------------------------------------------------| 
A|---------------------------------------------------------------------|
E|---------------------------------------------------------------------|
Tap to rate this tab
 
# A B C D E F G H I J K L M N O P Q R S T U V W X Y Z