Two Door Cinema Club - Undercover Martyn Acoustic tab

This follows what the electric (middle guy) plays in this video:
http://www.youtube.com/watch?v=-x9B3QId1Ls    
pretty accurate! -rosie

tuning: standard EADGBe

h=hammer on (ex: 2-h3- , play 2 then hammer on 3)
/=slide up to


e|----------0-h2-0--------------|----------0-h2-0--------------|
B|--2-h3-2---------2-0-2--------|--2-h3-2---------2-0----------|
G|--------2---------------------|--------2---------------------|
D|------------------------------|------------------------------|
A|------------------------------|------------------------------|
E|------------------------------|------------------------------|

play this for the intro and chorus ^

for the verses play this:

e|------------------------------|
B|-7/9-5------------------------|
G|------------------------------| repeat until chorus is over
D|------------------------------|
A|------------------------------|
E|------------------------------|

outro:

e|-----------------7-7-7-7--------|
B|-5-5-5-5-5-5-5-5---------9-9-9-9|
G|--------------------------------| repeat until outro is over
D|--------------------------------|
A|--------------------------------|
E|--------------------------------|
Tap to rate this tab
 
# A B C D E F G H I J K L M N O P Q R S T U V W X Y Z