Song name
# A B C D E F G H I J K L M N O P Q R S T U V W X Y Z

Two Door Cinema Club - What You Know tab

What You Know - Two Door Cinema Club

Standard Tuning ( EADGBe)

This song has two parts and the chorus is the same a s the intro so it is not too tricky :D

                    -----|Guitar 1|-----

Intro/Chorus

    F#m7
e|--9--9-----9--9--9--9-----9--9--9--9-----9--9--9--9---|
B|--10-10----10-10-10-10----10-10-10-10----10-10-10-9---|
G|--9--9-----9--9--9--9-----9--9--9--9-----9--9--9--9---|
D|--11-11----11-11-11-11----11-11-11-11----11-11-11-9---|
A|--9--9-----9--9--9--9-----9--9--9--9-----9--9--9--9---|
E|------------------------------------------------------|

     A
e|--12-12----12-12-12-12----12-12-12-12----12-12-12-12--|
B|--14-14----14-14-14-14----14-14-14-14----14-14-14-14--|
G|--14-14----14-14-14-14----14-14-14-14----14-14-14-14--|
D|--14-14----14-14-14-14----14-14-14-14----14-14-14-14--|
A|--12-12----12-12-12-12----12-12-12-12----12-12-12-12--|
E|------------------------------------------------------|

    D
e|--10-10----10-10-10-10----10-10-10-10----10-10-10-10--|
B|--10-10----10-10-10-10----10-10-10-10----10-10-10-10--|
G|--11-11----11-11-11-11----11-11-11-11----11-11-11-11--|
D|--12-12----12-12-12-12----12-12-12-12----12-12-12-12--|
A|--12-12----12-12-12-12----12-12-12-12----12-12-12-12--|
E|--10-10----10-10-10-10----10-10-10-10----10-10-10-10--|

    F#m7
e|--9--9-----9--9--9--9-----9--9--9--9-----9--9--9--9---|
B|--10-10----10-10-10-10----10-10-10-10----10-10-10-9---|
G|--9--9-----9--9--9--9-----9--9--9--9-----9--9--9--9---|
D|--11-11----11-11-11-11----11-11-11-11----11-11-11-9---|
A|--9--9-----9--9--9--9-----9--9--9--9-----9--9--9--9---|
E|------------------------------------------------------|


Verse

    F#m7         E             C#m         D
e|--9------------7-------------9-----------10-----------|
B|--10-----------9-------------9-----------10-----------|
G|--9------------9-------------9-----------11-----------|
D|--11-----------9-------------11----------12-----------|
A|--9------------7-------------11----------12-----------|
E|-----------------------------9-----------10-----------|

 
               -----|Guitar 2|----- 

Chorus/ Intro

e|--12-14-12---------12-14-12-----------12-14-12-------17-16-16-17-16----|
B|14--------14-14-14----------12-14-14----------14--14----------------14-|
G|-----------------------------------------------------------------------|
D|-----------------------------------------------------------------------|
A|-----------------------------------------------------------------------|
E|-----------------------------------------------------------------------|

Verse

e|----------14-14-14/12-12-12-12------|
B|------------------------------------|
G|--11-11-----------------------------|
D|------------------------------------|
A|------------------------------------|
E|------------------------------------|

then

e|------------------------------------|
B|------------------------------------|
G|--11--11--11--11-11--11--11-11--11--|
D|------------------------------------|
A|------------------------------------|
E|------------------------------------|
Tap to rate this tab
 
# A B C D E F G H I J K L M N O P Q R S T U V W X Y Z