Song name
# A B C D E F G H I J K L M N O P Q R S T U V W X Y Z

Two Door Cinema Club - Undercover Martyn Acoustic tab

Several people have contributed the chords already, so here are the tabs for the lead 
guitarist in the middle.

Acoustic version
http://www.youtube.com/watch?v=-x9B3QId1Ls

Standard tuning

e|-------------0h2p0-------|-------------0h2p0-------|
B|---2h3p2-----------2-3-2-|---2h3p2-----------2-0---|
G|-2-------2-2-------------|-2-------2-2-----------2-| *play twice
D|-------------------------|-------------------------|
A|-------------------------|-------------------------|
E|-------------------------|-------------------------|

        ~ *vibrato on 7
e|-----------------|
B|-6\9-7/5---------|
G|---------6-6-4-6-| *play 8 times
D|-----------------|
A|-----------------|
E|-----------------|


e|-------------0h2p0-------|-------------0h2p0-------|
B|---2h3p2-----------2-3-2-|---2h3p2-----------2-0---|
G|-2-------2-2-------------|-2-------2-2-----------2-| *play 4 times
D|-------------------------|-------------------------|
A|-------------------------|-------------------------|
E|-------------------------|-------------------------|

        ~ *vibrato on 7
e|-----------------|
B|-6\9-7/5---------|
G|---------6-6-4-6-| *play 8 times
D|-----------------|
A|-----------------|
E|-----------------|


e|-------------0h2p0-------|-------------0h2p0-------|
B|---2h3p2-----------2-3-2-|---2h3p2-----------2-0---|
G|-2-------2-2-------------|-2-------2-2-----------2-| *play 4 times
D|-------------------------|-------------------------|
A|-------------------------|-------------------------|
E|-------------------------|-------------------------|

You can pick up the strumming pattern by listening. I tend to only pluck
from D down to e.
e|-x---x---x--|
B|-9---12--14-|
G|-9---12--14-| * repetition of these chords until the end
D|-x---x---x--|
A|-x---x---x--|
E|-x---x---x--|

==========================================================================
h = hammer-on
p = pull-off
~ = vibrato
/ = slide up
\ = slide down
x = mute
==========================================================================
Tap to rate this tab
# A B C D E F G H I J K L M N O P Q R S T U V W X Y Z