Song name
# A B C D E F G H I J K L M N O P Q R S T U V W X Y Z

Two Door Cinema Club - Something Good Can Work tab

I transcripted these tabs my self and they sound correct to me, but I am only 14. If you 
see any mistakes you are very welcome to correct them.
By Charlie kelly.

Guitar 1

Capo on 5

Intro -
--------0-----------0---|
1---3-------1---3-------|
------------------------|
--3---3---3---3---3---3-|
------------------------|
------------------------|

Guitar 2

No Capo

Intro - Wait until first riff is played once through
e|17-15----------17-15-------20~-|
B|------18-17----------18-17-----|
G|------------17~----------------|
D|-------------------------------|
A|-------------------------------|
E|-------------------------------|

Main Riff/Chorus
e|17-15--------------------------------17-15-----------------------------|
B|------17-17h18p17h18p17-15-----------------17-17h18p17h18p17-----------|
G|---------------------------17~-17/19-------------------------17--------|
D|----------------------------------------------------------------17-15~-|
A|-----------------------------------------------------------------------|
E|-----------------------------------------------------------------------|

Verse
e|-----------------------------------------------|
B|1010-/1717--1010-/1717--1010-/1717--1010-/1717-|
G|-----------------------------------------------|
D|-----------------------------------------------|
A|8-8-/1515---8-8--/1515--8-8--/1515--8-8--/1515-|
E|-----------------------------------------------|

e|-----------------------------------------------------|
B|1010-/1717--1010-/1717--1010-/1717-15-151515---------|
G|1010-/1717--1010-/1717--1010-/1717-x--x-x-x--12/14---|
D|-----------------------------------12-121212-x--x----|
A|8-8--/1515--8-8--/1515--8-8--/1515-----------10/12---|
E|-----------------------------------------------------|


Chords - C, Am, Dm, C. Throughout full song.

 C.       Am.      Dm.     C.
|---|   |---|    |-1-|   |---|
|-1-|   |-1-|    |-3-|   |-1-|
|---|   |-2-|    |-2-|   |---|
|-2-|   |-2-|    |---|   |-2-|
|-3-|   |---|    |---|   |-3-|
|---|   |---|    |---|   |---|

Tabbed by Charlie Kelly. (:
Tap to rate this tab
# A B C D E F G H I J K L M N O P Q R S T U V W X Y Z