Song name
# A B C D E F G H I J K L M N O P Q R S T U V W X Y Z

Two Door Cinema Club - Handshake tab

-------------------------------------------------------------------------------
                                      "Handshake" - Two Door Cinema Club
-------------------------------------------------------------------------------

NOTE: I did this all by ear, so just follow the tab, freakin' easy song.

e|---------------------------|
B|---------------------------|
G|-------10-12-12-10---------|
D|-10-13---------------------|
A|---------------------------|
E|---------------------------| (x2)


e|-------------------------------------------|
B|-------------------------------------------|
G|------10-12-12-10-12-12-10-10--------------|
D|-10-13-------------------------13-10-10----|
A|-------------------------------------------|
E|-------------------------------------------|

....And, repeat!

If you're confused, email me at lolzcaleb@gmail.com.
Enjoy friends!
Tap to rate this tab
# A B C D E F G H I J K L M N O P Q R S T U V W X Y Z