Song name
# A B C D E F G H I J K L M N O P Q R S T U V W X Y Z

Two Door Cinema Club - Someday tab

-------------------------------------------------------------------------------
                             Someday - Two Door Cinema Club
-------------------------------------------------------------------------------
Tabbed by: PendulumMan24
Tuning: Standard

INTRO X2

e|-17-15-17-----------------------------17-15-17----------------------------------|
B|----------17-17-17-15-15-15-15b17-13----------17-17-17-15-15-15-15-15b17-13-----|
G|--------------------------------------------------------------------------------|
D|--------------------------------------------------------------------------------|
A|--------------------------------------------------------------------------------|
E|--------------------------------------------------------------------------------|

e|-----------------15--------------------------|
B|-15b17-15b17-17----17-15-15-13-17-17-17-15---|
G|---------------------------------------------|
D|---------------------------------------------|
A|---------------------------------------------|
E|---------------------------------------------|

PRE-VERSE X2

e|---------/5-5--|
B|-3b5-1-1-------|
G|---------------|
D|---------------|
A|---------------|
E|---------------|

VERSE

e|-----------|          |
B|-----------|          |
G|-----------| x4       |
D|-----------|          |
A|-7-7p5-----|          |
E|-------8p5-|          |
                        |   x3
e|-----------5-|        |
B|-----------5-|        |
G|-------------| x2     |
D|-------------|        |
A|-7-7p5-------|        |
E|-------8p5---|        |

e|-----------|
B|-----------|
G|-----------| x4
D|-----------|
A|-7-7p5-----|
E|-------8p5-|

e|---------|
B|---------|
G|---------| x4
D|---------|
A|-5/7-----|
E|-----8-5-|

e|---------/5-5--|
B|-3b5-1-1-------|
G|---------------| x2
D|---------------|
A|---------------|
E|---------------|

CHORUS

e|-17-15-17-----------------------------17-15-17----------------------------------|
B|----------17-17-17-15-15-15-15b17-13----------17-17-17-15-15-15-15-15b17-13-----|
G|--------------------------------------------------------------------------------|
D|--------------------------------------------------------------------------------|
A|--------------------------------------------------------------------------------|
E|--------------------------------------------------------------------------------|

e|-----------------15--------------------------|
B|-15b17-15b17-17----17-15-15-13-17-17-17-15---|
G|---------------------------------------------|
D|---------------------------------------------|
A|---------------------------------------------|
E|---------------------------------------------|

REPEAT PRE-VERSE; VERSE AND CHORUS ONCE MORE THEN....

BRIDGE/OUTRO

e|-5----------|
B|-5----------|
G|------------| x4
D|------------|
A|------------|
E|---XX5-8-55-|

e|-5--------|
B|-5--------|
G|----------| x4
D|----------|
A|-------57-|
E|---XX38---|

e|-5----------|
B|-5----------|
G|------------| x2
D|------------|
A|------------|
E|---XX5-8-55-|

TOWARDS THE END, LEAD GUITARIST SAM STARTS TO MIX UP THE DIFFERENT RIFFS. I DO NOT KNOW 
WHICH ORDER THEY GO IN BUT AFTER PLAYING THIS FIRST SECTION MIX THE RIFFS UP A BIT OR 
TRY TO WORK WHICH ORDER THEY GO IN

PLEASE RATE, THANKS :)

************************************

| /   slide up
| \   slide down
| h   hammer-on
| p   pull-off
| ~   vibrato
| +   harmonic
| x   Mute note
| b   Bend
| pb  Pre-bend
| br  Bend release
| pbr Pre-bend release
| brb Bend release bend

************************************
Tap to rate this tab
# A B C D E F G H I J K L M N O P Q R S T U V W X Y Z