Song name
# A B C D E F G H I J K L M N O P Q R S T U V W X Y Z

Two Door Cinema Club - Handshake tab

-----------------------------------------------------------------------------
                      HANDSHAKE - Two Door Cinema Club
-----------------------------------------------------------------------------
Tabbed by:shyzzaman
E-mail:xavier435@hotmail.com

Tuning: standard

Intro
e|-------------------------------------------------------------|
B|-------------------------------------------------------------|
G|---8-10-1212-10---8-10-1212-10---8-10-1212-10-1212-10-108----| 2x
D|-10-------------10-------------10-------------------------10-|
A|-------------------------------------------------------------|
E|-------------------------------------------------------------|

Verse
e|---------------------------------------|
B|---------------------------------------|
G|---------------------------------------| p.m.     2x
D|-10-8-5-85-5558855---------------------|
A|-------------------3/86-1010810-8-8-33-|
E|---------------------------------------|

e|--------------------------------------------------------|
B|--------------------------------------------------------|
G|-17-15-12-1512-12121215151212-5/108-12121012-10-10------| 2x
D|---------------------------------------------------1010-|
A|--------------------------------------------------------|
E|--------------------------------------------------------|

Chorus: Intro 4x

Part after chorus
e|--------------15-13-------15-13-------15-13-------|
B|-----------13-------16p13-------16p13-------16p13-|
G|-12b13br12----------------------------------------|
D|--------------------------------------------------|
A|--------------------------------------------------|
E|--------------------------------------------------|
                                                         4x
e|--------------15-13-------15-13----------18-16-|
B|-----------13-------16p13-------16p13-16-------|
G|-12b13br12-------------------------------------|
D|-----------------------------------------------|
A|-----------------------------------------------|
E|-----------------------------------------------|

e|-15---------18-16-15-|
B|---16.---------------|
G|---------------------|
D|---------------------|
A|---------------------|
E|---------------------|

Outro
e|-18.--16.-15.----------------------------------------------------|
B|----------------16--16-18-18--16--16--16-18-18--16--16--16-18-18-|
G|--------------17--17------------17--17------------17--17---------|  4x
D|-----------------------------------------------------------------|
A|-----------------------------------------------------------------|
E|-----------------------------------------------------------------|

e|-18.--16.-15.-----------------------------------------------------|
B|----------------16--16-18-18--16--16--16-18-----------------------|
G|--------------17--17------------17--17------10-12-12--10-12-12-12-| 4x
D|------------------------------------------------------------------|
A|------------------------------------------------------------------|
E|------------------------------------------------------------------|

There's a bunch of muted notes that's played in the outro but it's not too hard to 
figure out, just know the timing.

********************************

|   /     slide up
|   p     pull-off
|   .     tremolo picking
|   b     bend
|   br    bend release
|   p.m.  palm mute

********************************
Tap to rate this tab
# A B C D E F G H I J K L M N O P Q R S T U V W X Y Z