Song name
# A B C D E F G H I J K L M N O P Q R S T U V W X Y Z

Two Door Cinema Club - Beacon tab

Sam Halliday's part of Beacon based off of this video (Album version is exactly the same)
http://www.youtube.com/watch?v=OMYJv014IWY

e|-----------------------------------------------------|
B|-----------------------------------------------------|
G|-----------------------------------------------------|
D|--------------9-------------------------9------------|
A|--12--11--12-----12--11--9--12--11--12-----12--11--9-|
E|-----------------------------------------------------|
Repeat until A beacon that is calling me

e|-------------------------|
B|--17--17--17--15--19-----|
G|-------------------------|
D|-------------------------|
A|-------------------------|
E|-------------------------|
Repeat until Take the deep end

At trip the shutter
e|---------------------------------------|
B|---------10--1212------12--9-----------|
G|--9--11------------11---------11-------|
D|---------------------------------------|
A|---------------------------------------|
E|---------------------------------------|
Repeat this 3x

e|-------------------12--10----------|
B|---------10--1212----------14------|
G|--9--11----------------------------|
D|-----------------------------------|
A|-----------------------------------|
E|-----------------------------------|
Repeat from trip the shutter 3x

e|-------------------12--10----------|
B|---------10--1212----------14------|
G|--9--11----------------------------|
D|-----------------------------------|
A|-----------------------------------|
E|-----------------------------------|
Repeat 4x

This part is all tremolo picking
e|-------------------------------------------------------------------|
B|--17--15--14--15--17--15--14--15--17--15--14--15-long tremolo------|
G|-------------------------------------------------------------------|
D|-------------------------------------------------------------------|
A|-------------------------------------------------------------------|
E|-------------------------------------------------------------------|
Repeat 2x

e|-------------------------------------------------------------------|
B|--17--15--14--15--17--15--14--15--17--15--14--15--14--15--14-------|
G|-------------------------------------------------------------------|
D|-------------------------------------------------------------------|
A|-------------------------------------------------------------------|
E|-------------------------------------------------------------------|


Tap to rate this tab
 
# A B C D E F G H I J K L M N O P Q R S T U V W X Y Z