Song name
# A B C D E F G H I J K L M N O P Q R S T U V W X Y Z

Two Door Cinema Club - What You Know Acoustic tab

None of the acoustic versions on here seemed to fit right with what Alex plays in all
the videos I could find on Youtube so I thought i'd have a go myself. I think it's fairly
correct! Also sorry but I only started playing guitar 2 months ago so I have a bit of 
trouble with chord names! I've just missed out the names of any I didn't know so it'd be
awesome if anyone could let me know.

Standard Tuning,
CAPO 2


Intro/Chorus

   Em
e|--0--0-----0--0--0-------0--0--0-----0-0---0-----|
B|--0--0-----0--0--0-------0--0--0-----0-0---0-----|
G|--0--0-----0--0--0-------0--0--0-----0-0---0-----|
D|--2--2-----2--2--2-------2--2--2-----2-2---0-----|
A|--2--2-----2--2--2-------2--2--2-----2-2---0-----|
E|--0--0-----0--0--0-------0--0--0-----0-0---2-----|

     G?
e|--3-3----3-3-3-----3-3-3-----3-3---0-------|
B|--0-0----0-0-0-----0-0-0-----0-0---3-------|
G|--0-0----0-0-0-----0-0-0-----0-0---0-------|
D|--0-0----0-0-0-----0-0-0-----0-0---0-------|
A|--x-x----x-x-x-----x-x-x-----x-x----2------|
E|--3-3----3-3-3-----3-3-3-----3-3----3------|

    ?
e|--0-0----0-0-0-----0-0-0----0-0-0---0-------|
B|--3-3----3-3-3-----3-3-3----3-3-3---3-------|
G|--0-0----0-0-0-----0-0-0----0-0-0---0-------|
D|--2-2----2-2-2-----2-2-2----2-2-2---0-------|
A|--3-3----3-3-3-----3-3-3----3-3-3---2-------|
E|--0-0----0-0-0-----0-0-0----0-0-0---3-------|

   Em
e|--0--0-----0--0--0-------0--0--0-----0-0--0-----|
B|--0--0-----0--0--0-------0--0--0-----0-0--3-----|
G|--0--0-----0--0--0-------0--0--0-----0-0--0-----|
D|--2--2-----2--2--2-------2--2--2-----2-2--0-----|
A|--2--2-----2--2--2-------2--2--2-----2-2--0-----|
E|--0--0-----0--0--0-------0--0--0-----0-0--3-----|


Verse  (repeat 2x)

    Em              D             ?         Cadd9??
e|--0--------2-------0-------0-----------|
B|--0--------3-------3-------3-----------|
G|--0--------2-------2-------0-----------|
D|--2--------0-------0-------2-----------|
A|--2----------------0-------3-----------|
E|--0----------------2-------0-----------|



Bridge (repeat 4x)

    Em              ??
e|--0--------0----------|
B|--0--------0----------|
G|--0--------0----------|
D|--2--------9----------|
A|--2--------10---------|
E|--0--------10---------|
Tap to rate this tab
 
# A B C D E F G H I J K L M N O P Q R S T U V W X Y Z