Song name
# A B C D E F G H I J K L M N O P Q R S T U V W X Y Z

Two Door Cinema Club - Youre Not Stubborn tab

Standard Tuning
No Capo Required

I notice that no one has the tabbing up for this song yet, which is a shame because it's 
an awesome song! I did my best at trying to figure it out. This tab works for the 
chorus also.
Enjoy :)

e|-7-7-7--5--5---7-7-7--5-----7-7-7--5--5---5--14-14--17---------------------|
B|-------------------------7--------------7----------------------------------|
G|---------------------------------------------------------------------------|
D|---------------------------------------------------------------------------|
A|---------------------------------------------------------------------------|
E|---------------------------------------------------------------------------|


e|-7-7-7--5--5---7-7-7--5-----7-7-7--5--5----2---0---------------------------|
B|-------------------------7-------------------3---0-------------------------|
G|---------------------------------------------------------------------------|
D|---------------------------------------------------------------------------|
A|---------------------------------------------------------------------------|
E|---------------------------------------------------------------------------|
Tap to rate this tab
# A B C D E F G H I J K L M N O P Q R S T U V W X Y Z