Song name
# A B C D E F G H I J K L M N O P Q R S T U V W X Y Z

Two Door Cinema Club - This Is The Life tab

Two Door Cinema Club
This is the life
:)

Intro

e|---------------------------------------------------|
B|--19-19-19-19-19-19---19-19---17-17-17-17---9-9-9--|
G|---------------------------------------------------|
D|---------------------------------------------------|
A|---------------------------------------------------|
E|---------------------------------------------------|

e|------------------------------------------------------|
B|--19-19-19-19-19-19----10-10-10-12-10-12-9------------|
G|------------------------------------------------------|
D|------------------------------------------------------|
A|------------------------------------------------------|
E|------------------------------------------------------|

e|----------------------------------------------------|
B|--9---7-7---9---7-7---9--7----5--0--5---------------|
G|----------------------------------------------------|
D|----------------------------------------------------|
A|----------------------------------------------------|
E|----------------------------------------------------| X2


Verse 1

e|--------------------------------------------------------------------|
B|--------------------------------------------------------17--17--16--|
G|---------------------16--16--16-------------------------------------|
D|-----------18---------------------------------18--------------------|
A|--16--16------19---------------------16--16------19-----------------|
E|--------------------------------------------------------------------| X4
B

e|--------------------------------------------------|
B|--9--9--7--7--5--5--4--4--2--2--0--0--2--2--4--4--|
G|--------------------------------------------------|
D|--------------------------------------------------|
A|--------------------------------------------------|
E|--------------------------------------------------| X2

e|----------------------------------------|
B|-5--7-9-7--7-9-7--7-9-7--5--0--5--------|
G|----------------------------------------|
D|----------------------------------------|
A|----------------------------------------|
E|----------------------------------------| X2
Tap to rate this tab
# A B C D E F G H I J K L M N O P Q R S T U V W X Y Z