Song name
# A B C D E F G H I J K L M N O P Q R S T U V W X Y Z

Two Door Cinema Club - Changing Of The Seasons tab

This covers the guitar played with the synth back track in the song, listen to the song 
for more accurate timing.

            This repeats for the entire verse

e|----------9h10p9-------------9h10p9-------------9h10p9------------|
B|----------------10/12\10-7-7-------10/12\10-7-7-------------------|
G|------------------------------------------------------------------|
D|------------------------------------------------------------------|
A|------------------------------------------------------------------|
E|------------------------------------------------------------------|
"Did you ever.."                               "..get to know me"


This plays during the chorus with gain, he improvise his slides

e|--22-21-21-19-17-19-17-----------------17-------------17----------------|
B|-----------------------17/15\19-191919----17\19-191919--17/19-191919--15|
G|------------------------------------------------------------------------|
D|------------------------------------------------------------------------|
A|------------------------------------------------------------------------|
E|------------------------------------------------------------------------|
"I worn out.."

            *15 plays at the end of the chorus, otherwise repeat
Tap to rate this tab
# A B C D E F G H I J K L M N O P Q R S T U V W X Y Z