Song name
# A B C D E F G H I J K L M N O P Q R S T U V W X Y Z

Two Gallants - Nothing To You tab

Capo 2

I used to play this song without capo in D Bm A but this is how Adam plays it. 
It's also a little bit easier this way.

Intro

   C                Am          G
E|-0-----0-0h1--0---------------------------|
B|----1-----------1-------1-----------0-----|
G|--------------------2-----2-----0-----0---|
D|-------2--------------2-----2-----0-----0-|
A|-3-------3--------0-----------------------|
E|------------------------------3-----------|

Verse

   C           G           Am          G
E|-------0----------------------------------------|
B|---------1---------0-----------1----------0-----|
G|---0-------0---0-----0-----2-----2----0-----0---|
D|-----2-----------0-----0-----2-----2----0-----0-|
A|-3-----------------------0----------------------|
E|-------------3-----------------------3----------|

2nd Verse

   C           G           Am          G
E|-----0---0-------0---0-------0---0-------0---0--|
B|-----1---1-------0---0-------1---1-------0---0--|
G|-----0---0-------0---0-------2---2-------0---0--|
D|-----2---2-------0---0-------2---2-------0---0--|
A|-3---------------2---2---0---------------2---2--|
E|-------------3-----------------------3----------|

Variation on intro (played twice, listen to the song)

   C                Am          G
E|-0-----0-0h1--0---------------------------|
B|----1-----------1-------5-----------3-----|
G|--------------------5-----5-----4-----4---|
D|-------2--------------7-----7-----5-----5-|
A|-3-------3--------------------------------|
E|------------------5-----------3-----------|

It's down by the riverside, wasting away

   C           C           Am          G
E|-------0-----------0----------------------------|
B|---------1-----------1---------1----------0-----|
G|---0-------0---0-------0---2-----2----0-----0---|
D|-----2-----------2-----------2-----2----0-----0-|
A|-3-----------3-----------0----------------------|
E|-------------------------------------3----------|

Now Mama, you're nothing to you

   C           G           Am          G
E|-------0----------------------------------------|
B|---------1---------0-----------1----------0-----|
G|---0-------0---0-----0-----2-----2----0-----0---|
D|-----2-----------0-----0-----2-----2----0-----0-|
A|-3-----------------------0----------------------|
E|-------------3-----------------------3----------|
Tap to rate this tab
 
# A B C D E F G H I J K L M N O P Q R S T U V W X Y Z