Song name
# A B C D E F G H I J K L M N O P Q R S T U V W X Y Z

Two Gallants - Steady Rollin tab

Tabbed by

youtube.com/weikie
myspace.com/weikie
weikie.com
twitter.com/weikiemon

etc.


SONG : Steady Rollin'
ARTIST : Two Gallants



#----------------------------------PLEASE NOTE---------------------------------#
#This file is the author's own work and represents their interpretation of the #
#song. You may only use this file for private study, scholarship, or research. #
#------------------------------------------------------------------------------##


  Q=120
 4/4
  Gtr I
|-----3-----3-----3---1---0-----------------------0---1-0-----------|
|---1---1-------1---1---1-----1-------1-----3---------------3---1---|
|---------------------------0---0---2---2-------2---2---------------|
|-----2-------2-------2-------2-------3-------3-------3-------3-----|
|-3---------------3-------------------------------------------------|
|---------3---------------3-------1-------1-------1-------1---------|


|-------------------3-----1-0---------0-----0------------------------|
|-----0-1-3-1-0---------0-------1-----------------1-0-----------0----|
|---0-----------0-------------------0---0-------0-------0---2--------|
|-----2-------2-------0-------0-------2-------2----------------------|
|-3-------3-----------------------3---------------3-------0---2------|
|-----------------3-------3---------------3-----------3--------------|


|-----0---0---0---0-------------------------------------------------------|
|---3---3---3---3---3---1-------------1---1-3-1---3-1-------1---------1---|
|---------------------------0---0---2---2-------2-------0-1---1-0---2---2-|
|-----2-------2-------2---------------3-------3-------3-------0-------0---|
|-3---------------3-------------------------------------------------------|
|---------3---------------3---2---1-------1-------1-------1-------2-------|


|---------------0-------------3---1-0---------------0--------|
|-1---1---1-3-------3-1-3---0-----------3-1---1---3---3-1----|
|---2---2-----------------------------------2---2------------|
|-----0-------0-------0-------0-------0-------3-------3------|
|------------------------------------------------------------|
|-2-------2-------2-------3-------3-------1-------1----------|



***************************************************************************************
* Generated using Power Tab Editor by Brad Larsen - http://powertab.guitarnetwork.org *
***************************************************************************************
Tap to rate this tab
 
# A B C D E F G H I J K L M N O P Q R S T U V W X Y Z