Song name
# A B C D E F G H I J K L M N O P Q R S T U V W X Y Z

Two Gallants - The Hand That Held Me Down tab

Studio version: Down 1 half step

intro / verse

   F  /  G       C               
E|-------0-------------0---------|
B|---3-----5-------------1-----1-|
G|-----2-----4-----0-------0-----|
D|-3-----5-----5-----2-------2---|
A|---------------3---------------|
E|-------------------------------|


   F  /  G       G               
E|-------0-------------3---------|
B|---3-----5-------------0-----0-|
G|-----2-----4-----0-------0-----|
D|-3-----5-----5-----0-------0---|
A|-------------------------------|
E|---------------3---------------|


   F  /  G     Dm  C         F     G   
E|-------0---------------------3-3-1-0---------|
B|---3-----5---6---5---1---------------3---1-3-|
G|-----2-----4-7---5---0-0-------------0-------|
D|-3-----5-----------------2-------------------|
A|-------------5---3---3-----------------------|
E|---------------------------1---------3-------|


   F  /  G       C               
E|-------0-------------0---------|
B|---3-----5-------------1-----1-|
G|-----2-----4-----0-------0-----|
D|-3-----5-----5-----2-------2---|
A|---------------3---------------|
E|-------------------------------|


   F  /  G       G               
E|-------0-------------3---------|
B|---3-----5-------------0-----0-|
G|-----2-----4-----0-------0-----|
D|-3-----5-----5-----0-------0---|
A|-------------------------------|
E|---------------3---------------|


try some fingerpicking, listen to the song:

C    Am   F    G
8 
8
9
10 
10 
8

chorus
C    C    C    G    Am    G    F    C Cadd9
8    8    8
10   8    10
9    9    9
10   10   10
-    10   -
-    8    -

and ever since your epitaph was splattered on my wall...
C    G    F  C  G

outro x2
C    C    Am    G 
8    8    
10   8    
9    9    
10   10    
-    10   
-    8    

end on Cadd9
Tap to rate this tab
# A B C D E F G H I J K L M N O P Q R S T U V W X Y Z