Song name
# A B C D E F G H I J K L M N O P Q R S T U V W X Y Z

Two Gallants - Halycon Days tab

This is just me, thinking I can tab after watching a Two Gallants video.
This is ONLY THE INTRO AND THE VERSE, at least the bare bones.

Good luck, and hopefully someone sensible can table out the whole thing later on.

Introduction:
e|-------------------------------------------------------------------------|
B|--8p7------7-------------8---------8-------------------------------------|
G|-------9-------9---7-----9---------9-------------------------------------|
D|-------------------------9---------9-------------------------------------|
A|-------------------------7---------7-------------------------------------|
E|-------------------------0---------0-------------------------------------|



e|-------------------------------------------------------------------------|
B|--8~---8p7-------10---8----8-------8-------------------------------------|
G|-------------9-------------9-------9-------------------------------------|
D|---------------------------9-------9-------------------------------------|
A|---------------------------7-------7-------------------------------------|
E|---------------------------0-------0-------------------------------------|



e|-------------------------------------------------------------------------|
B|--8~---8p7-------7--------8----------------------------------------------|
G|-------------9--------------9--------5-----------------------------------|
D|-----------------------10---------6-----6--------------------------------|
A|----------------------------------------------7~-------------------------|
E|---------------------8---------4-----------------------------------------|


e|-------------------------------------------------------------------------|
B|--8p7------7-------------8---------8-------------------------------------|
G|-------9-------9---7-----9---------9-------------------------------------|
D|-------------------------9---------9-------------------------------------|
A|-------------------------7---------7-------------------------------------|
E|-------------------------0---------0-------------------------------------|



                                     
e|-------------------------------------------------------------------------|
B|--8~---8p7-------10---8----8-------8-------------------------------------|
G|-------------9-------------9-------9-------------------------------------|
D|---------------------------9-------9-------------------------------------|
A|---------------------------7-------7-------------------------------------|
E|---------------------------0-------0-------------------------------------|



e|-------------------------------------------------------------------------|
B|--8~---8p7-------7-------------------------------------------------------|
G|-------------9---------9--9--9--9---------11-11-11-11--------------------|
D|-----------------------10-10-10-10--------12-12-12-12--------------------|
A|-----------------------10-10-10-10--------12-12-12-12--------------------|
E|-----------------------8--8--8--8--slide--10-10-10-10--------------------|


Verse:
e|-------------------------------------------------------------------------|
B|--8---8---8~--8p7-------7------------------------------------------------|
G|--9---9-------------9------9---7-----------------------------------------|
D|--9---7------------------------------------------------------------------|
A|--7---7------------------------------------------------------------------|
E|--0---0------------------------------------------------------------------|



e|-------------------------------------------------------------------------|
B|--8---8---8~--8p7-------10---8-------------------------------------------|
G|--9---9-------------9----------------------------------------------------|
D|--9---7------------------------------------------------------------------|
A|--7---7------------------------------------------------------------------|
E|--0---0------------------------------------------------------------------|



e|-------------------------------------------------------------------------|
B|--8---8---8~--8p7-------7------------------------------------------------|
G|--9---9-------------9------9---9--9--9--10-5-5-5-5-----------------------|
D|--9---7------------------------10-10-10-10-6-6-6-6-----------------------|
A|--7---7------------------------10-10-10-10-6-6-6-6-----------------------|
E|--0---0------------------------8--8--8--8--4-4-4-4-----------------------|


e|-------------------------------------------------------------------------|
B|--8---8---8~--8p7-------7------------------------------------------------|
G|--9---9-------------9------9---7-----------------------------------------|
D|--9---7------------------------------------------------------------------|
A|--7---7------------------------------------------------------------------|
E|--0---0------------------------------------------------------------------|



e|-------------------------------------------------------------------------|
B|--8---8---8~--8p7-------10---8-------------------------------------------|
G|--9---9-------------9----------------------------------------------------|
D|--9---7------------------------------------------------------------------|
A|--7---7------------------------------------------------------------------|
E|--0---0------------------------------------------------------------------|



e|-------------------------------------------------------------------------|
B|--8---8---8~--8p7-------7------------------------------------------------|
G|--9---9-------------9------9---9--9--9--10-11-11-11-11-------------------|
D|--9---7------------------------10-10-10-10-12-12-12-12-------------------|
A|--7---7------------------------10-10-10-10-12-12-12-12-------------------|
E|--0---0------------------------8--8--8--8--10-10-10-10-------------------|
Tap to rate this tab
# A B C D E F G H I J K L M N O P Q R S T U V W X Y Z