Song name
# A B C D E F G H I J K L M N O P Q R S T U V W X Y Z

Two Gallants - Cradle Pyre chords

Highlighted       Show chord diagrams
D Bm D Bm

D                   Bm
  ON a tidal wave I stand
D                      Bm
  Perhaps of me you've heard
D                          Bm
  With a storm cloud in my hand
A                      G
  I've come dispensing Word

D                      Bm
  OF your company I've tired
D                      Bm
  Your welcome here is worn
D                             Bm
  It's you who lit this cradle pyre
Gm                        Dm    C
  It is you who woke this storm
Gm                        Dm    C
  It is you who woke this storm

F    A*

D*                  Bm*
  SO I do this with regret
D*                          Bm*
  But you've left me little choice
D*                           Bm*
  When your mouth is full of threats
Gm                          Dm    C
  When you speak you use my voice
Gm                          Dm    C
  When you speak you use my voice

F    A*

A#    F            A        Dm
  OH, child, where will you run
A#         F          C*
  When the world's on fire?
A#    F             A      Dm
  Old man, see what you've done,
A#       F           C*
  as the flames grow higher

e-----------5-6--8--8--6-5---------------------------------------|
b-----------------------------10-------10------10----------------|
g--7-7-7-7-----------------------10-------10--------9--9--9--9---|
D--8-8-8-8--7-8--10-10-8-7----------10--------------10-10-10-10--|
A--8-8-8-8------------------8----------------8------10-10-10-10--|
E--6-6-6-6------------------------------------------8--8--8--8---|

e-----------3-5--6-6-5-3--------------------------------|
b---------------------------6-----6-----8---------------|
g--3-3-3-3--------------------7-----7------9--9--9--9---|
D--5-5-5-5--5-7--8-8-7-5--------7----------10-10-10-10--|
A--5-5-5-5--------------- 5-----------5----10-10-10-10--|
E--3-3-3-3---------------------------------8--8--8--8---|

e-----------5-6--8--8--6-5-------------------------|-----------------|
b-----------------------------10-------10------10--|-----------------|
g--7-7-7-7-----------------------10-------10-------|o--9--9--9--9---o|
D--8-8-8-8--7-8--10-10-8-7----------10-------------|---10-10-10-10---|
A--8-8-8-8------------------8----------------8-----|o--10-10-10-10--o|
E--6-6-6-6-----------------------------------------|---8--8--8--8----|


A#    F            A        Dm
  OH, child, where will you run
A#         F          C
  When the world's on fire?
A#    F             A      Dm
  Old man, see what you've done,
A#       F           C
  as the flames grow higher

A  C*  D*
Tap to rate this tab
# A B C D E F G H I J K L M N O P Q R S T U V W X Y Z