Song name
# A B C D E F G H I J K L M N O P Q R S T U V W X Y Z

Two Gallants - Crow Jane tab

Hey All, this is a pretty easy tune once you get the hang of it, one of my favortie DT 
it's definately fun to play. Enjoy!

Open E tuning (E,B,E,G#,B,E, low to high)


Bar all strings w/ 1st finger and use pinky finger to fret others, listen to 
for variations, its the same chord pattern all the way through. Pluck bass notes w/ thumb, 1 and 2 
hit the higher strings.

*-denotes multiple "plucks" of chord

e----7---7---4---4----------------------11--11--------------|
B----4---4---4---7----------------------11--14--------------|
G#----------------------------------11----------------------|
E--------------------------------11-------------------------|
B----------------------------11-----------------------------|
E----4---4---4---4--------11------------11--11--------------|


                  *
e-----------9---9------9-----------------4---4----------------11---11-----|
B-----------9---12-----9-----------------4---7----------------11---14-----|
G#------------------------------------------------------------------------|
E--------9----------------------------4-------------------11--------------|
B-----9----------------------------4-------------------11-----------------|
E--9--------9---9------9--------4--------4---4------11--------11---11-----|


         *
e---4---4-------------------------------------|
B---7---4-------------------------------------|
G#--------------------------------------------|
E---------------------------------------------|
B---------------------------------------------|
E---4---4-------------------------------------|
Tap to rate this tab
# A B C D E F G H I J K L M N O P Q R S T U V W X Y Z