Song name
# A B C D E F G H I J K L M N O P Q R S T U V W X Y Z

Two Gallants - Steady Rollin tab

Help us improve GuitareTab! Take a short survey!
I have only tabbed out each of the 2 main parts once.  But this is the basic framework 
the song.

Intro/Chorus

|----3---------------3-----------|3-------1-------0---------------|
|------------1---------------1---|--------------------3-----------|
|--------------------------------|----------------------------0---|
|--------2---------------2-------|--------2---------------2-------|
|3-------------------------------|3-------------------------------|
|----------------3---------------|----------------3---------------|


|--------------------------------|0-------1---0-------------------|
|------------1-------3-----------|--------------------3-------1---|
|----2-----------------------2---|--------------------------------|
|--------3---------------3-------|--------3---------------3-------|
|--------------------------------|--------------------------------|
|1---------------1---------------|1---------------1---------------|


|--------------------------------|----3-----------1---0-----------|
|--------0h--1---3---1-----------|--------------------------------|
|----------------------------0---|------------0---------------0---|
|--------2---------------2-------|--------0---------------0-------|
|3---------------3---------------|--------------------------------|
|--------------------------------|3---------------3---------------|


|--------------------------------|--------------------------------|
|1-------------------1-----------|----1---------------1-----------|
|------------0---------------0---|------------0---------------0---|
|--------2---------------2-------|--------2---------------2-------|
|3-------------------------------|3-------------------------------|
|----------------3---------------|----------------3---------------|

 Verse

|----0---0-------0-------0-------|0-------------------------------|
|------------3-------3-------3---|----3-------1-------------------|
|--------------------------------|--------------------0-------0---|
|--------2---------------2-------|--------2-----------------------|
|3-------------------------------|3-------------------------------|
|----------------3---------------|----------------3-------2-------|

|--------------------------------|--------------------------------|
|--------1-------1---3---1-------|3---1---------------1-----------|
|----2-------2---------------2---|------------0h----2---------2---|
|--------3---------------3-------|--------3---------------3-------|
|--------------------------------|--------------------------------|
|1---------------1---------------|1---------------1---------------|


|--------------------------------|------------0-------------------|
|--------0h1p0---1---0-----------|1---3---------------3-----------|
|----2-----------------------2---|----------------------------2---|
|--------0---------------0-------|--------0---------------0-------|
|--------------------------------|--------------------------------|
|2---------------2---------------|2---------------2---------------|


|--------3-------1---0-----------|--------------------0-----------|
|--------------------------------|--------1-------3-------3---1---|
|----0-------0---------------0---|----2-------2-------------------|
|--------0---------------0-------|--------3---------------3-------|
|--------------------------------|--------------------------------|
|3---------------3---------------|1---------------1---------------|
Related for Steady Rollin tab