Song name
# A B C D E F G H I J K L M N O P Q R S T U V W X Y Z

Two Gallants - Despite What Youve Been Told tab

Band: Two Gallants
Song: Despite What You've Been Told
Album: Two Gallants
Tabbed by: David Aitchison
Email: Davidaitch@yahoo.co.uk

Tuning: Standard

   C                                -VERSE-
e|---------------------------------------------------------------------------|
B|---------------------------------------------------------------------------|
G|---0---0---0---0-----------------------------------------------------------|
D|-----2-------2-----3---2---0-2-0-------------------------------------------|
A|-3-------3-------3---3---3-------------------------------------------------|
E|---------------------------------------------------------------------------|

   F
e|---------------------------------------------------------------------------|
B|---------------------------------------------------------------------------|
G|-------2-------2-----------------------------------------------------------|
D|---3-------3-------3---2-3-------------------------------------------------|
A|-----3-------3-------3-----------------------------------------------------|
E|-1-------1-------1---------------------------------------------------------|

   C
e|---------------------------------------------------------------------------|
B|---------------------------------------------------------------------------|
G|---0---0---0---0-----------------------------------------------------------|
D|-----2-------2-----3---2---0-2-0-------------------------------------------|
A|-3-------3-------3---3---3-------------------------------------------------|
E|---------------------------------------------------------------------------|

   F                C
e|---------------------------------------------------------------------------|
B|---------------------------------------------------------------------------|
G|-------2-------2----0---0---0---0------------------------------------------|
D|---3-------3----------2-------2--------------------------------------------|
A|-----3-------3----3-------3------------------------------------------------|
E|-1-------1-----------------------------------------------------------------|

   C
e|---------------------------------------------------------------------------|
B|---------------------------------------------------------------------------|
G|---0---0---0---0-----------------------------------------------------------|
D|-----2-------2-----3---2---0-2-0-------------------------------------------|
A|-3-------3-------3---3---3-------------------------------------------------|
E|---------------------------------------------------------------------------|

   G
e|---------------------------------------------------------------------------|
B|---------------------------------------------------------------------------|
G|-------0-------0-----------------------------------------------------------|
D|---0-------0-------3---2--0-2-0--------------------------------------------|
A|-----2-------2-------2-----------------------------------------------------|
E|-3-------3-------3---------------------------------------------------------|

   F
e|---------------------------------------------------------------------------|
B|---------------------------------------------------------------------------|
G|-------2-------2-----------------------------------------------------------|
D|---3-------3-------3---2-3-------------------------------------------------|
A|-----3-------3-------3-----------------------------------------------------|
E|-1-------1-------1---------------------------------------------------------|

   C                   G  
e|---------------------------------------------------------------------------|
B|---------------------------------------------------------------------------|
G|---0-----0---0-----0-------0-------0---------------------------------------|
D|-----0h2-------0h2-----0-------0-------------------------------------------|
A|-3---------3-------------2-------2-----------------------------------------|
E|---------------------3-------3---------------------------------------------|


                               -PRE-CHORUS-

   F               G
e|---------------------------------------------------------------------------|
B|---------------------------------------------------------------------------|
G|-------2-------2-------0-------0-------------------------------------------|
D|---3-------3-------0-------0-----------------------------------------------|
A|-----3-------3-------2-------2---------------------------------------------|
E|-1-------1-------3-------3-------------------------------------------------|

   C                   G
e|---------------------------------------------------------------------------|
B|---------------------------------------------------------------------------|
G|---0-----0---0-----0-------0-------0---------------------------------------|
D|-----0h2-------0h2-----0-------0-------------------------------------------|
A|-3---------3-------------2-------2-----------------------------------------|
E|---------------------3-------3---------------------------------------------|

   F               G
e|---------------------------------------------------------------------------|
B|---------------------------------------------------------------------------|
G|-------2-------2-------0-------0-------------------------------------------|
D|---3-------3-------0-------0-----------------------------------------------|
A|-----3-------3-------2-------2---------------------------------------------|
E|-1-------1-------3-------3-------------------------------------------------|

   C
e|---------------------------------------------------------------------------|
B|---------------------------------------------------------------------------|
G|---0---0---0---0---0---0---0---0-------------------------------------------|
D|-----2-------2-------2-------2---------------------------------------------|
A|-3-------3-------3-------3-------------------------------------------------|
E|---------------------------------------------------------------------------|

   F               G
e|---------------------------------------------------------------------------|
B|---------------------------------------------------------------------------|
G|-------2-------2-------0-------0-------------------------------------------|
D|---3-------3-------0-------0-----------------------------------------------|
A|-----3-------3-------2-------2---------------------------------------------|
E|-1-------1-------3-------3-------------------------------------------------|

   C                   G
e|---------------------------------------------------------------------------|
B|---------------------------------------------------------------------------|
G|---0-----0---0-----0-------0-------0---------------------------------------|
D|-----0h2-------0h2-----0-------0-------------------------------------------|
A|-3---------3-------------2-------2-----------------------------------------|
E|---------------------3-------3---------------------------------------------|

   F               G
e|---------------------------------------------------------------------------|
B|---------------------------------------------------------------------------|
G|-------2-------2-------0-------0-------------------------------------------|
D|---3-------3-------0-------0-----------------------------------------------|
A|-----3-------3-------2-------2---------------------------------------------|
E|-1-------1-------3-------3-------------------------------------------------|

   C                       G
e|---------------------------------------------------------------------------|
B|---------------------------------------------------------------------------|
G|---0---0---0---0---0---0---------------------------------------------------|
D|-----2-------2-------2-----------------------------------------------------|
A|-3-------3-------3-------2-2-2---------------------------------------------|
E|-------------------------3-3-3---------------------------------------------|


PLAY VERSE AGAIN

                           -SECOND PRE-CHORUS-
                                 
   F               G 
e|---------------------------------------------------------------------------|
B|-------1-------1-------0-------0-------------------------------------------|
G|---2-------2-------0-------0-----------------------------------------------|
D|-----3-------3-------0-------0---------------------------------------------|
A|-------------------------2-------------------------------------------------|
E|-1-------1-------3---------------------------------------------------------|

   C                G
e|---------------------------------------------------------------------------|
B|-------1-------1--------0------0-------------------------------------------|
G|---0-------0--------0------0-----------------------------------------------|
D|-----2-------2--------0------0---------------------------------------------|
A|-3-------3---------------2-------------------------------------------------|
E|------------------3--------------------------------------------------------|

   F               G 
e|---------------------------------------------------------------------------|
B|-------1-------1-------0-------0-------------------------------------------|
G|---2-------2-------0-------0-----------------------------------------------|
D|-----3-------3-------0-------0---------------------------------------------|
A|-------------------------2-------------------------------------------------|
E|-1-------1-------3---------------------------------------------------------|

   C      
e|---------------------------------------------------------------------------|
B|-------1-------1-------1-------1-------------------------------------------|
G|---0-------0-------0-------0-----------------------------------------------|
D|-----2-------2-------2-------2---------------------------------------------|
A|-3-------3-------3-------3-------------------------------------------------|
E|---------------------------------------------------------------------------|

   F               G
e|---------------------------------------------------------------------------|
B|-------1-------1-------0-------0-------------------------------------------|
G|---2-------2-------0-------0-----------------------------------------------|
D|-----3-------3-------0-------0---------------------------------------------|
A|-------------------------2-------------------------------------------------|
E|-1-------1-------3---------------------------------------------------------|

   C                G 
e|---------------------------------------------------------------------------|
B|-------1-------1--------0------0-------------------------------------------|
G|---0-------0--------0------0-----------------------------------------------|
D|-----2-------2--------0------0---------------------------------------------|
A|-3-------3---------------2-------------------------------------------------|
E|------------------3--------------------------------------------------------|

   F               G
e|---------------------------------------------------------------------------|
B|-------1-------1-------0-------0-------------------------------------------|
G|---2-------2-------0-------0-----------------------------------------------|
D|-----3-------3-------0-------0---------------------------------------------|
A|-------------------------2-------------------------------------------------|
E|-1-------1-------3---------------------------------------------------------|

   C                G
e|---------------------------------------------------------------------------|
B|-------1-------1--------0------0-------------------------------------------|
G|---0-------0--------0------0-----------------------------------------------|
D|-----2-------2--------0------0---------------------------------------------|
A|-3-------3---------------2-------------------------------------------------|
E|------------------3--------------------------------------------------------|


                              -CHORUS-

            C         G
e|-0---0----0--3-1-0--0--0---------------------------------------------------|
B|---3---3--1---------3----3-------------------------------------------------|
G|----------0---------0------------------------------------------------------|
D|----------2---------0------------------------------------------------------|
A|----------3---------2------------------------------------------------------|
E|--------------------3------------------------------------------------------|

   F
e|---------------------------------------------------------------------------|
B|-------1-------1-------1-------1-------------------------------------------|
G|---2-------2-------2-------2-----------------------------------------------|
D|-----3-------3-------3-------3---------------------------------------------|
A|---------------------------------------------------------------------------|
E|-1-------1-------1-------1-------------------------------------------------|

   A minor
e|-------0----------------0--------------------------------------------------|
B|-----------1----------------1----------------------------------------------|
G|---2-----------2----2-----------2------------------------------------------|
D|-2---2---2---2----2---2---2---2--------------------------------------------|
A|---------------------------------------------------------------------------|
E|---------------------------------------------------------------------------|

   G
e|-------0---------------0---------------------------------------------------|
B|-----------3---------------3-----------------------------------------------|
G|---0-----------0---0-----------0-------------------------------------------|
D|-----0---0---0-------0---0---0---------------------------------------------|
A|---------------------------------------------------------------------------|
E|-3---------------3---------------------------------------------------------|

   F
e|-------1----------------0--------------------------------------------------|
B|-----------1----------------3----------------------------------------------|
G|---2-----------2----0-----------0------------------------------------------|
D|-----3---3---3--------0---0---0--------------------------------------------|
A|---------------------------------------------------------------------------|
E|-1---------------3---------------------------------------------------------|
Tap to rate this tab
# A B C D E F G H I J K L M N O P Q R S T U V W X Y Z