Song name
# A B C D E F G H I J K L M N O P Q R S T U V W X Y Z

Two Gallants - Deader tab

Artist: Two Gallants
Song: The Deader
Album: Two Gallants


Like most 2G's songs, this one is finger-picked and a bit tricky for the novice.

There are two guitars on this track, acoustic and electric, playing similar things.  
in this song he only plays C G and F (and variations thereof) and picks the melody line on 
higher strings.

The chords are indicated for fretting, but the chords are rarely strummed. Instead they 
finger-picked. So listen to the track to get a feel.

Note: The | indicate the beginning of a measure.


Intro (freely):

e -0----0------0-h1h3---5----5--5s3--3s1--1---------------|
B -1------0----------------1------------------------------|
G -0--------0---------------------------------------------|
D -2------------------------------------------------------|
A -3------------------------------------------------------|
E ----------------------1-------1----1----1---------------|

e -3----3------3-1-0----1----1------1--0------0---------------------|
B -1------0-------------0------0----------3---1---------------------|
G -0--------0-----------0--------0------------0---------------------|
D -2--------------------0---------------------2---------------------|
A -3--------------------2---------------------3---------3-3-3-2-0---|
E ----------------------3-----------------------------------------3-|

Verse:
e -0----0---------------0-------|1-----------0-----------|
B -4------4----------4-----4----|1-----1-3---1-----------|
G -0------------0---------------|2-----------0-----------|
D -0----------------------------|3-----------2-----------|
A -2----------------------------|3-----------3-3-3-2-0---|
E -3----------3----3------------|1----1----------------3-|
"So now let me tell you..."

e -0----0---------------0-------|1-----------0---0--------|
B -4------4----------4-----4----|1-----1-3---1------1---1-|
G -0------------0---------------|2-----------0--------0---|
D -0----------------------------|3-----------2------------|
A -2----------------------------|3-----------3------------|
E -3----------3----3------------|1----1-------------------|
"Hard like all men's dreams.."

e -1----1-1-3-1-----0--0-1-0----|------0-----1-----------|
B -1----------------1-----------|3--3-----3--1---1--3----|
G -2----------------0-----------|0-----------2-----------|
D -3----------------2-----------|0-----------3-----------|
A -3----------------3-----------|2-----------3-----------|
E -1----------------------------|3-----------1-----------|
"I turn hollow..."


e -1---1-3-1--------0--0-1-0----|------0---------------------|
B -3----------------1-----------|3--3-----3-------1-------0--|
G -2----------------0-----------|0-------------2-------2-----|
D -0----------------2-----------|0---------------------------|
A ------------------3-----------|2---------------------------|
E ------------------------------|3-----------1---1---2---2---|
"But distance keeps her.."


e -0----0---------------0-------|1-----------0-----------|
B -4------4----------4-----4----|1-----1-3---1-----------|
G -0------------0---------------|2-----------0-----------|
D -0----------------------------|3-----------2-----------|
A -2----------------------------|3-----------3-3-3-2-0---|
E -3----------3----3------------|1----1----------------3-|
"Cause here they come again..."


e -0----0---------------0-------|1-----------0---0--------|
B -4------4----------4-----4----|1-----1-3---1------1---1-|
G -0------------0---------------|2-----------0--------0---|
D -0----------------------------|3-----------2------------|
A -2----------------------------|3-----------3------------|
E -3----------3----3------------|1----1-------------------|
"Child don't play yourself.."


e -3----3-3-5-3-----1--1-3-1----|0--0--1--0---0-------------|
B -3----------------0-----------|3------------3------3------|
G -0----------------0-----------|0------------0---0----0----|
D -2----------------0-----------|2------------0-------------|
A -3----------------2-----------|3------------2-------------|
E -0----------------3-----------|0------------3-------------|
"Bridge or river.."

e -3----3-3-5-3-----1--1-3-1----|0--0--------------------------------------|
B -3----------------0-----------|3-----3--1--------0-------0------0------0-|
G -0----------------0-----------|0--------------0-------0------0------0----|
D -2----------------0-----------|2-----------------------------------------|
A -3----------------2-----------|3-----------------------------------------|
E -0----------------3-----------|0------------3---3---2--2---1--1---2--2---|
"But to my despair.."

Chorus:

e -0----------------1----0------|1--0-------------0--------------------|
B -1---3--1---------0-----------|0-----3--1-------1--------------------|
G -0--------0-------0-----------|0-----------0----0--------------------|
D -2----------------0-----------|0----------------0----0---2-----------|
A -3----------------2-----------|2----------------3--3---3-------------|
E -0----------------3-----------|3-------------------------------------|
"But the gal I love is oh so..."

e -0----------------1----0------|1--0-------------0-----------------------|
B -1---3--1---------0-----------|0-----3--1-------1-----------------------|
G -0--------0-------0-----------|0-----------0----0-----------------------|
D -2----------------0-----------|0----------------0-----------------------|
A -3----------------2-----------|2----------------3---------3--3--2--0----|
E -0----------------3-----------|3-------------------------------------3--|
"I wonder can she hear me..."

(go to Verse)


Bridge: ("I turned away in shame..")
e -0-1-3--|5----------5s3-----|5--5s3--3s1---3--3-----0-----0--|
B -1------|1--------------1---|-----------------1--------1-----|
G -0------|-------------------|-----------------0--------------|
D -2------|-------------------|-----------------2--------------|
A -3------|-------------------|-----------------3--------------|
E -0------|1----------1-------|1-------1-----------------------|
         >"Shame"

e |3--3---1--0-----1---1---0--|1---1-0---------0------------0---1--3--|
B |1---------------0----------|0-----------3--1-----------------------|
G |0---------------0----------|0--------------0-----------------------|
D |2---------------0----------|0--------------2-----------------------|
A |3---------------2----------|2--------------3-----------------------|
E |----------------3----------|3--------------------------------------|
   "Guess I'll just"                                "...desert be my"

e -|5----------5s3-----|5--5s3--3s1---3--3--------------|
B -|1--------------1---|-----------------1--------------|
G -|-------------------|-----------------0--------------|
D -|-------------------|-----------------2--------------|
A -|-------------------|-----------------3--------------|
E -|1----------1-------|1-------1-----------------------|
   "Bride"                               "Guide"


e |3--3---1--0-----1---1---0-------0---------------------|
B |1---------------0-----------3---1---------------------|
G |0---------------0---------------0---------------------|
D |2---------------0---------------2---------------------|
A |3---------------2---------------3---------------------|
E |----------------3-------------------------------------|
   "..My heart"    "Steel"         "Feel"

(goto Chorus)


Acknowledgements: Special thanks to dressrag1 who submitted the Chords version of this. 
one is more detailed and hopefully correct.
Tap to rate this tab
# A B C D E F G H I J K L M N O P Q R S T U V W X Y Z