Song name
# A B C D E F G H I J K L M N O P Q R S T U V W X Y Z

Two Gallants - Seems Like Home To Me tab

hey that's the my version of Seems Like Home To Me which is based on the daytrotter 
it's only the intro but if you are able to play the intro it's not difficult to change the 
pattern throughout the song as adam does! just follow the bassline and fill in
the other notes and that's it!

Seems Like Home To Me                              (Two Gallants)

  C                                  F
e|-0---------0-----0---0------------|-------------------------------------|
B|-------1-------1---1---3---1---0--|-------1---------1---1-0-------------|
G|----------------------------------|---2-------2---2---2-------2---0-----|
D|-----2-------2-------2-------2----|-----3-------3-------3-------3-------|
A|-3-------3-------3-------3--------|-------------------------------------|
E|----------------------------------|-1-------1-------1-------1-----------|

  C                                  G
e|-------------------0--------------|------3------------1p0---------------|
B|-------1-------1-------3p1-----0--|---------0------0h1-----0-3-1--------|
G|---0-------0---------------0------|--0----------0-----------------------|
D|-----2-------2-------2-------2----|----0------0-----0--------0----------|
A|-3-------3-------3-------3--------|-------------------------------------|
E|----------------------------------|-3------3------3------3--------------|

  C
e|-----------0----------------------|
B|-------1--------1-------1---------|
G|---0----------------0-------0---0-|
D|-----2-------2--------2-------2---|
A|-3-------3--------3-------3-------|
E|----------------------------------|
Tap to rate this tab
 
# A B C D E F G H I J K L M N O P Q R S T U V W X Y Z