Song name
# A B C D E F G H I J K L M N O P Q R S T U V W X Y Z

Two Guys And A Fella - Donkey Balls tab

Help us improve GuitareTab! Take a short survey!
Two Guys And A Fella - Donkey Balls
Regular Tuning


E-----------------------------------------------------------|
B-----------------------------------------------------------|
G----------0------------0------------0-------------0--------|
D----------------2--------------------------2---------------|
A-----3-----------------------3-----------------------------|
E-----------------------------------------------------------|

E-----------------------------------------------------------|
B-----------------------------------------1-----------------|
G----------0-------------0----------------------0-----------|
D------------------2------------------------------------2---|
A----3----------------------------3-------------------------|
E-----------------------------------------------------------|

Repeat a helluva lot of times

Outro

E----------------------------------------0------------------|
B----------------------------------------1------------------|
G----------------------------------------0------------------|
D-------3--------0-----------------------2------------------|
A----------------------------------------3------------------|
E-----------------------------3----------0------------------|

Man, Two Guys And A Fella is awesome!

If anyone wants any Two Guys And A Fella guitar or bass tabs
or lyrics just email me at PoliticalPunk911@aol.com

Once Again... Two Guys And A Fella rocks with a passion!!!
Related for Donkey Balls tab