Song name
# A B C D E F G H I J K L M N O P Q R S T U V W X Y Z

Two Steps From Hell - Area 51 tab

Hi, this is my first tab, and it's a cool part from the song Area 51 by TSFH.
Hope you find it helpful!

The part is 1:57 - 2:12


E|-------------------------------------------------------|
B|-------------------------------------------------------|
G|-------------------------------------------------------|
D|----------------8-------------10-------------8---------|
A|--10--8--10--8-----10--8--10------10--8--10-----10--8--|
E|-------------------------------------------------------|



E|--------------------------------------------------|
B|--------------------------------------------------|
G|--------------------------------------------------|
D|--8-----------------------------------------------|
A|-----10--8------------------8------10-------------|
E|------------11--10--11--10-----10------11--10--8--|



E|-------------------------------------------------------------------------------------------|
B|-------------------------------------------------------------------------------------------|
G|-------------------------------------------------------------------------------------------|
D|----------------------------10---------9---------8-----------------------------------------|
A|------8--10--11--10--8----------11--8---------8-----8--10--11--8--10--8--------------8--8--|
E|--10--------------------10----------------10-----------------------------10--11--10--------|



E|-----------------------------------------------------------------------------------------------|
B|-----------------------------------------------------------------------------------------------|
G|-----------------------------------------------------------------------------------------------|
D|-----------------------------10---------9------------8-----------------------------------------|
A|--------------8------------------11--8-----8------8-----8--10--11--8------8--10--8-------------|
E|--10--11--10-----11--10--11-------------------10----------------------10------------10--11--11-|
Tap to rate this tab
 
# A B C D E F G H I J K L M N O P Q R S T U V W X Y Z