Song name
# A B C D E F G H I J K L M N O P Q R S T U V W X Y Z

Two Steps From Hell - Birth Of A Hero tab

Birth of a Hero - Two Steps From Hell

Tabbed by: Kotonaruwind
E-mail: abandonedstrings@gmail.com

Tuning: standard


 (0:00 - 0:52)
e|---------------------------------------------------------------------------|
B|---------------------------------------------------------------------------|
G|--------12----15----14----10h12----12----10--------------------------------|
D|--10-------------------------------------------13----12----10--------------|
A|---------------------------------------------------------------------------|
E|---------------------------------------------------------------------------|

e|---------------------------------------------------------------------------|
B|---------------------------------------------------------------------------|
G|--------12----15----14----12-----------------------------------------------|
D|--10----------------------------10----13----12----8----10------------------|
A|---------------------------------------------------------------------------|
E|---------------------------------------------------------------------------|

 (0:52 - 1:06)
e|---------------------------------------------------------------------------|
B|------------------------------11-------------------------------------------|
G|--------12----8--10--12--8---------10--------------------------------------|
D|--10-----------------------------------8--13--12--8------------------------|
A|---------------------------------------------------------------------------|
E|---------------------------------------------------------------------------|

e|---------------------------------------------------------------------------|
B|-------------------------------11------------------------------------------|
G|--------12----8--10--12--8-----------8-------10----------------------------|
D|--10--------------------------------------8--------------------------------|
A|---------------------------------------------------------------------------|
E|---------------------------------------------------------------------------|

 (1:07 - 1:22)
e|---------------------------------------------------------------------------|
B|---------------------------------------------------------------11---13-----|
G|-------12--12-10---------15---------12--12-10--------12---10---------------|
D|--13----------------13--------13----------------13-------------------------|
A|---------------------------------------------------------------------------|
E|---------------------------------------------------------------------------|

 (1:23 - 1:37)
e|---------------------------------------------------------------------------|
B|---------------------------------------------------------------------------|
G|------------------------------------------------ 10-12--10-----------------|
D|--10--10-12-13-12-10--12-8--10-6----10--10-12-13------------12--10---------|
A|---------------------------------------------------------------------------|
E|---------------------------------------------------------------------------|

e|---------------------------------------------------------------------------|
B|---------------------------------------------------------------------------|
G|---------------------------------------------------------------------------|
D|--10--10-12-13-12-10--12-8--10-6----8--12--13-12--8--10--------------------|
A|---------------------------------------------------------------------------|
E|---------------------------------------------------------------------------|

 (1:37 - 1:52)
e|---------------------------------------------------------------------------|
B|---------------------------------------------------------------------------|
G|---------------------------------------------------------------------------|
D|--10-12-13--13-15-17-15-13--15-------15--15-17-18-17-15--17----------------|
A|-------------------------------13------------------------------------------|
E|---------------------------------------------------------------------------|

e|---------------------------------------------------------------------------|
B|---------------------------------------------------------------------------|
G|--13--13-15-17-15-13--15---------------------------------------------------|
D|-------------------------13----15--15-17-18-17-15--17----------------------|
A|---------------------------------------------------------------------------|
E|---------------------------------------------------------------------------|

 (1:53 - end)
e|---------------------------------------------------------------------------|
B|---------------------------------------------------------------------------|
G|------------------------------------------------ 10-12--10-----------------|
D|--10--10-12-13-12-10--12-8--10-6----10--10-12-13------------12--10---------|
A|---------------------------------------------------------------------------|
E|---------------------------------------------------------------------------|

e|---------------------------------------------------------------------------|
B|---------------------------------------------------------------------------|
G|---------------------------------------------------------------------------|
D|--10--10-12-13-12-10--12-8--10-6----8--12--13-12--8--10--------------------|
A|---------------------------------------------------------------------------|
E|---------------------------------------------------------------------------|

I hope this will be helpful to someone, if you have any doubts don't hesitate to tell me. 
("h" in first part means hammer on)
Tap to rate this tab
# A B C D E F G H I J K L M N O P Q R S T U V W X Y Z