Song name
# A B C D E F G H I J K L M N O P Q R S T U V W X Y Z

Two Thirty Eight - Forty Hour Increments tab

Twothirtyeight - Forty Hour Increments
By:Andrew Mcshan(Guitarguyx182@aol.com)

e|-------------------------------------------------------------------------| 
B|-------------------------------------------------------------------------| 
G|-------------------------------------------------------------------------| 
D|------------------------4/5/4--------------------------------------------| 
A|--------9/10/9--4/5/4------------------------4/5/-9-5---4/5-9------------| 
E|--7/10--------------------------------------3-----------3----------------| 

e|-------------------------------------------------------------------------| 
B|-11-11-----------12-14---------------------------------------------------| 
G|-11-11----7------12-14---------------------------------------------------| 
D|-11-11---7--7----12-14------x2-------------------------------------------| 
A|-9---9--5-----5--10-12---------------------------------------------------| 
E|-------------------------------------------------------------------------| 

e|-------------------------------------------------------------------------| 
B|-------------------------------------------------------------------------| 
G|-------------------------------------------------------------------------| 
D|-9-9--12-4-4-7--9-9------4-4---------------------------------------------| 
A|-9-9--12-4-4-7--9-9--9-5-4-4-7-4-----------------------------------------| 
E|-7-7--10-2-2-5--7-7------2-2---------------------------------------------| 

e|-7-5-2-5-7-5--7-9------------| 
B|-----------------------------| 
G|-----------------------------| 
D|-----------------------------| 
A|-----------------------------| 
E|-----------------------------| 


e|------------------------------------------------------------------------| 
B|-11-11------------6--9--------------------------------------------------| 
G|-11-11----7------4--7---------------------------------------------------| 
D|-11-11---7--7-----------x2----------------------------------------------| 
A|-9---9--5------5--------------------------------------------------------| 
E|------------------------------------------------------------------------| 


e|-------------------------------------------------------------------------| 
B|-------------------------------------------------------------------------| 
G|-------------------------------------------------------------------------| 
D|-9-9--12-4-4-7--9-9------4-4---------------------------------------------| 
A|-9-9--12-4-4-7--9-9--9-5-4-4-7-4-----------------------------------------| 
E|-7-7--10-2-2-5--7-7------2-2---------------------------------------------| 

e|-------------------------------------------------------------------------| 
B|-------------------------------------------------------------------------| 
G|-------11/12/11-------6/7/6----------------------------------------------| 
D|-7-10------------4/2/4---------------------------------------------------| 
A|----------------------------------4/5/-9-5---4/5-9-----------------------| 
E|--------------------------------3-----------3----------------------------|
Tap to rate this tab
# A B C D E F G H I J K L M N O P Q R S T U V W X Y Z