Song name
# A B C D E F G H I J K L M N O P Q R S T U V W X Y Z

Two Tongues - Interlude tab

-------------------------------------------------------------------------------
			     Interlude - Two Tongues
-------------------------------------------------------------------------------
Tabbed by: Dangerbirds


Tuning: Standard


**The C note in the third chord shape during the picking section
  can be replaced with a 1 on the B string (instead of 5 on the G string)
  for an easier shape, but wont allow for the slide sound that
  you can hear in the recording.


PICKING 0:00 - 0:25
e|-----------------------------------------------------------|
B|---1-------------------------------------------------------|
G|------0--------0--------5\---------------------------------|
D|------------0--------2------------2--------2--------2------|
A|-0-------2--------3------------3--------3--------3----3----|
E|----------------------------1--------1--------1------------|

e|-----------------------------------------------------------|
B|-----------------------------------------------------------|
G|-------0-------0--------5\---------------------------------|
D|----2-------0--------2------------2--------2--------2------|
A|-0-------2--------3------------3--------3--------3-----3---|
E|----------------------------1--------1--------1------------|

e|-----------------------------------------------------------|
B|-----------------------------------------------------------|
G|-------0-------0--------5\---------------------------------|
D|----2-------0--------2------------2--------2--------2------|
A|-0-------2--------3------------3--------3--------3-----3---|
E|----------------------------1--------1--------1------------|

e|----------------------------------------------------------------|
B|----------------------------------------------------------------|
G|-------0-------0--------5\------------------------------0-------|
D|----2-------0--------2------------2--------2--------2-----3---3-|
A|-0-------2--------3------------3----3----3---3----3---3-----2---|
E|-----------------------------1---------1--------1---------------|



CHORDS 0:26 -0:57 

(play each chord 8x)
e|-----------------|
B|-----------------|
G|-----------------|
D|-2---0---2---2---|
A|-3---2---2---3---|
E|-1---3---0---1---|

Final Chord
e|--0--|
B|--1--|
G|--0--|
D|--2--|
A|--3--|
E|--1--|




 \ = slide down

===============================================================================
Tap to rate this tab
# A B C D E F G H I J K L M N O P Q R S T U V W X Y Z