Song name
# A B C D E F G H I J K L M N O P Q R S T U V W X Y Z

Two Tongues - Wowee Zowee tab

Two Tongues
"Wowee Zowee"
2009
Tabbed by: Alex Miskell
Email: shibbyx138@aim.com

I couldn't figure out some parts of the song, so I decided to just tab out the solo 
I know its 100% correct. I tabbed out the solo in Half-Step Down tuning, because the other 
that I have figured out from Two Tongues are tuned that way.

Tuning: Half-Step Down

e|------------------------------------------------------------------|
B|------------------------------------------------------------10----|
G|-11-11-11-9-9-9-6-7-6-7-6-7-6----11-11-11-9-9-9-6-7-6-7-6-7----7--|
D|------------------------------7-----------------------------------|
A|------------------------------------------------------------------|
E|------------------------------------------------------------------|

e|---------------------------------------------------------------------------|
B|---------------------------------------------------------------------------|
G|-11-11-11-9-9-9--14-14-14-14-14-14-14-14-14--------------------------------|
D|---------------------------------------------------------------------------|
A|---------------------------------------------------------------------------|
E|---------------------------------------------------------------------------|

e|------------------------|
B|----7--5/7-5--5/7-8p7---|
G|-6h7-7----7--7-------9--|
D|------------------------|
A|------------------------|
E|------------------------|


| /  slide up
| \  slide down
| h  hammer-on
| p  pull-off
| ~  vibrato
| +  harmonic
| x  Mute note
===============================================================================
Tap to rate this tab
# A B C D E F G H I J K L M N O P Q R S T U V W X Y Z