Song name
# A B C D E F G H I J K L M N O P Q R S T U V W X Y Z

Two Tongues - Silly Game tab

Two Tongues
"Silly Game"
2009
Tabbed by: Alex Miskell
Email: shibbyx138@aim.com

For those of you who haven't heard of Two Tongues, it's a new band featuring Max and 
from Say Anything and Chris and Dave from Saves The Day.

Tuning: Half-step down (eb Ab Db Gb Bb Eb)

Intro / Verse
e|---------------------------------0-0-000-000|
B|---------------------------------3/5-555\333|
G|-5555555555555555-555555555555--------------|
D|-5555555555555555-555555555555--------------|
A|-3333333333333333-000000000000--------------|
E|--------------------------------------------|

Chorus
"When she went away..."
e|---------------------|
B|---------------------|
G|------------------7--|
D|-----------5--7/9----| x2
A|-3333--5h7-----------|
E|---------------------|

Chorus cont.
"You stayed here..."
e|------------------|
B|------------------|
G|------------------|
D|-------9^10--7-5--|  x2
A|-0000-------------|
E|------------------|

Verse 2 (same as verse 1)

Chorus 2 (same as chorus 1)

Bridge (1:46)
e|---------------------|
B|---------------------|
G|---0-----0-----0-00--|
D|--4-4---5-5--4h5-55--|
A|-5-----5-------5-55--|
E|---------------------|

Bridge cont. (1:49)
e|--------------------------------|
B|---12---12---10---10-10p8-10p8--|
G|-12---12---12---12--------------|
D|--------------------------------|  x3
A|--------------------------------|
E|--------------------------------|

Bridge cont. (1:57)
e|---10---10--7--7--8p7-------|
B|-10---10---8--8-------10p8--|
G|----------------------------| (play until solo)
D|----------------------------|
A|----------------------------|
E|----------------------------|

Solo (2:08)
I couldn't figure out the whole thing, but it's almost all of it, and I'm pretty sure 
what I have figured out is accurate.
If you can figure out the rest of it, send me an email and I'll give you credit for it 
the tab.

e|-10b12-10-7------------------------------------------------------|
B|------------10/12-12--10h12-10----10h12-10---10p8----------------|
G|------------------------------12----------12-----9p7------7h9p7--|
D|---------------------------------------------------------------9-|
A|-----------------------------------------------------------------|
E|-----------------------------------------------------------------|

Solo cont. (2:15)
e|-----------------------------------|
B|-----------------------------------|
G|-7h9-9p7---7-----------------------|
D|----------9--9-7-------------------|
A|------------------7s9-9h10--12s14--|
E|-----------------------------------|

Solo cont. (2:18)
[unfinished]
e|------------------------------------------------------------------------------------------|
B|------------------------------------------------------------------------------------------|
G|------------------------------------------------------------------------------------------|
D|2p0-4p0-5p0-4p0-5p0-7p0-9p0-7p0-9p0-10p0-12p0-10p0-12p0-14p0-16p0-14p0-16p0-17p0-19p0-17p0|
A|------------------------------------------------------------------------------------------|
E|------------------------------------------------------------------------------------------|
And that's as far as I got with that part. If you get this part down, you might be able 
figure out the rest of it.

The outro is the same as the intro / verse

| /  slide up
| \  slide down
| h  hammer-on
| p  pull-off
| ~  vibrato
| +  harmonic
| x  Mute note
| b  bend note
===============================================================================
Tap to rate this tab
# A B C D E F G H I J K L M N O P Q R S T U V W X Y Z