Song name
# A B C D E F G H I J K L M N O P Q R S T U V W X Y Z

Two Tongues - If I Could Make You Do Things tab

-------------------------------------------------------------------------------
			     if i could make you do things
-------------------------------------------------------------------------------
Tabbed by: TheTroy
Tuning: Half step down

ok. this is an ATTEMPT. the chords are tricky to figure out and im sure
they arent perfect but they are a start. feedback would be appreciated.

intro
e|-0-0-x-0-0-0-0~-0-0-0-0~|---|-00x00x---------------------------------------|
B|-1-1-x-0-0-0-0~-0-0-0-0~|---|-11x11x---------------------------------------|
G|-0-0-x-0-0-0-0~-0-0-0-0~|---|-00x00x-2~~-14-14-14br14-14-------------------|
D|-x-x-x-2-2-2-2~-2-2-2-2~|-X3|-00x00x-2~~-x--x--x---x--x--------------------|
A|-3-3-x-2-2-2-2~-2-2-2-2~|---|-33x33x-0~~-12-12-12br12-12-------------------|
E|-3-3-x-0-0-0-0~-0-0-0-0~|---|-33x33x---------------------------------------|

drums come in (i think this is what it is. NOT POSSITIVE)
e|---------------------------------------------------------------------------|
B|---------------------------------------------------------------------------|
G|--------------------16br-------16br----------------------------------------|
D|---------------------------------------------------------------------------|
A|---------------------------------------------------------------------------|
E|-12-12\-8-8-8-15-15------15-15---------------------------------------------|

heavier now - guitar 1
e|-------0-0-----------------------------------------------------------------|
B|-------0-0-----------------------------------------------------------------|
G|-5-5---0-0-----------------------------------------------------------------|
D|-5-5---2-2-----------------------------------------------------------------|
A|-3-3---2-2-----------------------------------------------------------------|
E|-----0-0-0-----------------------------------------------------------------|

i cant figure out the sweet guitar 2 riff for that part.

play the "drums come in" part

play something similar to intro

some weird bridgey thing i dont know

play drumscome in

play something similar to intro

thats all i got now


| /  slide up
| \  slide down
| h  hammer-on
| p  pull-off
| ~  vibrato
| +  harmonic
| x  Mute note
===============================================================================
Tap to rate this tab
# A B C D E F G H I J K L M N O P Q R S T U V W X Y Z