Song name
# A B C D E F G H I J K L M N O P Q R S T U V W X Y Z

Two Tongues - Crawl tab

Help us improve GuitareTab! Take a short survey!
-------------------------------------------------------------------------------
			     crawl - two tongues
-------------------------------------------------------------------------------
Tabbed by: TheTroy
Tuning: Drop Db or Drop C#

intro - this is tricky but with practice you'll get it down. this is 
probably not how they play it but hey, it works for the tuning. play this
during the verse
e|---------------------------------------------------------------------------|
B|---------------------------------------------------------------------------|
G|-10-----10\9-----9\5-----5/7-----------------------------------------------|
D|------0--------0-----3-0---------------------------------------------------|
A|----8--------8---------------8---------------------------------------------|
E|-------------------------------8-------------------------------------------|

verse - other guitar (the lead can be found in the other tab. its late
and im too tired to go look at it)
e|---------------------------------------------------------------------------|
B|---------------------------------------------------------------------------|
G|-7-7-7-7-5-5-5-5-2-2-2-2-3-3-3-3-------------------------------------------|
D|-7-7-7-7-5-5-5-5-2-2-2-2-3-3-3-3-------------------------------------------|
A|-5-5-5-5-3-3-3-3-0-0-0-0-1-1-1-1-------------------------------------------|
E|---------------------------------------------------------------------------|

chorus guitar 1
e|---------------------------------------------------------------------------|
B|---------------------------------------------------------------------------|
G|-------------5~------------------------------------------------------------|
D|-0-0-0-3-0-3-5~------------------------------------------------------------|
A|-0-0-0-3-0-3-3~------------------------------------------------------------|
E|-0-0-0-3-0-3---------------------------------------------------------------|

chorus guitar 2 - i cant really hear it well. but during that last chord
for guitar 1 it plays this. maybe when i get the cd i can hear it
better.
e|---------------------------------------------------------------------------|
B|---------------------------------------------------------------------------|
G|---------------------------------------------------------------------------|
D|-5-5-5-3-5/7-5-3-----------------------------------------------------------|
A|---------------------------------------------------------------------------|
E|---------------------------------------------------------------------------|

play verse

play chorus

bridge guitar 1
e|---------------------------------------------------------------------------|
B|---------------------------------------------------------------------------|
G|-33-333-355-555-566-666-677-777--------------------------------------------|
D|-33-333-355-555-555-555-577-777--------------------------------------------|
A|-11-111-133-333-344-444-455-555--------------------------------------------|
E|---------------------------------------------------------------------------|

guitar 2
e|---------------------------------------------------------------------------|
B|---------------------------------------------------------------------------|
G|-10-10-10-10-10-10-10-10-9-9-9-9-9-9-9-9-9-9-9-9-9-9-9-9-10h12-10-10-10----|
D|---------------------------------------------------------------------------|
A|---------------------------------------------------------------------------|
E|---------------------------------------------------------------------------|

e|---------------------------------------------------------------------------|
B|---------------------------------------------------------------------------|
G|-12-12/14-12-10-9-(the next stuff i cant figure out)-----------------------|
D|---------------------------------------------------------------------------|
A|---------------------------------------------------------------------------|
E|---------------------------------------------------------------------------|

play the intro

play chorus

END
| /  slide up
| \  slide down
| h  hammer-on
| p  pull-off
| ~  vibrato
| +  harmonic
| x  Mute note
===============================================================================
Related for Crawl tab