Song name
# A B C D E F G H I J K L M N O P Q R S T U V W X Y Z

Two Tongues - Dead Lizard tab

-------------------------------------------------------------------------------
			     dead lizard - two tongues
-------------------------------------------------------------------------------
Tabbed by: TheTroy
Tuning: Half Step Down

this song is pretty simple. it may take some practice though. im sure that
this is at least 95% correct

intro/verse. just keep repeating
e|---------------------------------------------------------------------------|
B|---------------------------------------------------------------------------|
G|---------------------------------------------------------------------------|
D|---------------------------------------------------------------------------|
A|-----4-----5-----4------4/5------------------------------------------------|
E|-0h2---0h2---0h2----0h2----------------------------------------------------|

guitar 2 - before chorus (those are ten's and elevens.) its just an F#m chord
e|-9--9--9-9--9-9------------------------------------------------------------|
B|-10-10-1010-1010-----------------------------------------------------------|
G|-11-11-1111-1111-----------------------------------------------------------|
D|-11-11-1111-1111-----------------------------------------------------------|
A|-9--9--9-9--9-9------------------------------------------------------------|
E|---------------------------------------------------------------------------|

chorus X2
e|---------------------------------------------------------------------------|
B|---------------------------------------------------------------------------|
G|----------7----------------------------------------------------------------|
D|-4--------7--X16---2--------4-4-x-2-4--------------------------------------|
A|-4--X16---5--------2--X16---4-4-x-2-4--------------------------------------|
E|-2-----------------0--------2-2-x-0-2--------------------------------------|

chorus guitar 2
e|-5p0h5p4p0h4h5p0h5p4p0h4h5p4p2p0-------------------------------------------|
B|---------------------------------------------------------------------------|
G|---------------------------------------------------------------------------|
D|---------------------------------------------------------------------------|
A|---------------------------------------------------------------------------|
E|---------------------------------------------------------------------------|

repeat intro/verse

repeat chorus

bridge
e|---------------------------------------------------------------------------|
B|---------------------------------------------------------------------------|
G|--------------------------------77-7-77------------------------------------|
D|-44-4-444-4-33-3-33-3-22-2-22-2-77-7-77------------------------------------|
A|-44-4-444-4-22-2-22-2-22-2-22-2-55-5-55------------------------------------|
E|-22-2-222-2-11-1-11-1-00-0-00-0--------------------------------------------|

play intro

play chorus

end awesome song


| /  slide up
| \  slide down
| h  hammer-on
| p  pull-off
| ~  vibrato
| +  harmonic
| x  Mute note
===============================================================================
Tap to rate this tab
# A B C D E F G H I J K L M N O P Q R S T U V W X Y Z